Viernes Verde - Abrazar la Niebla



*************************************************
* Viernes Verde                                 *
* Abrazar la Niebla                             *
* www.RockChapin.ORG                            * 
*************************************************


ESTO ES PARA LOS AMANTES DEL ROCK NACIONAL



Intro
E|--------------0-------------------|
B|--6-----6------------6-----6------|
G|----5-----5------5-----5-----5----|
D|------7-----7------7-----7-----7--|
A|----------------------------------|
E|----------------------------------|

E|--------------0-------------------0-0X--0---0-0X--0|
B|--6-----6------------6-----6------6-6X--6---6-6X--6|
G|----5-----5------5-----5-----5----5-5X--5---5-5X--5|
D|------7-----7------7-----7-----7--7-7X------7-7X---|
A|---------------------------------------------------|
E|---------------------------------------------------|

E|--------------0-------------------|
B|--6-----6------------6-----6------|
G|----5-----5------5-----5-----5----|
D|------7-----7------7-----7-----7--|
A|----------------------------------|
E|----------------------------------|

E|--------------0-------------------0-0X--0---0-0X--0|
B|--6-----6------------6-----6------6-6X--6---6-6X--6|
G|----5-----5------5-----5-----5----5-5X--5---5-5X--5|
D|------7-----7------7-----7-----7--7-7X------7-7X---|
A|---------------------------------------------------|
E|---------------------------------------------------|

E|------------------------------------------------------------------|
B|-10-11-10-11-10---11^13---10-11-10-11-10-11-13--12-13-12-13-15(15)|
G|------------------------------------------------------------------|
D|------------------------------------------------------------------|
A|------------------------------------------------------------------|
E|------------------------------------------------------------------|

E|-9--9-9-----------------------------------------------------------|
B|---------12--12-12--10--10-10-----10-10^12------------------------|
G|-------------------------------12---------------------------------|
D|------------------------------------------------------------------|
A|------------------------------------------------------------------|
E|------------------------------------------------------------------|

Tenerte es como reducir la inmensidad a un segundo
es un alarido enviado con poder hacia el vacio
son miles de estrellas dibujando un cazador toda una noche
es desgarar el alma entera en soledad con un suspiro.

Deja de pedir aquellos duendes jibaros....


Cualquier sugerencia o comentario, me pueden 
escribir a Esta dirección de correo electrónico está siendo protegida contra los robots de spam. Necesita tener JavaScript habilitado para poder verlo.
-----------------------------------------------------------------------
Trancripcion de Vinicio Sánchez (Super Chivo)
Esta dirección de correo electrónico está siendo protegida contra los robots de spam. Necesita tener JavaScript habilitado para poder verlo.