Viernes Verde - 6



*************************************************
* Viernes Verde                                 *
* ..6..                                         *
* www.RockChapin.ORG                            * 
*************************************************


(como esta Guatemala hoy??)
Que importa que mañana vuelva a despertar
Nada importa ya, no se repetirá....
Soy el rey de lo inerte, mi único espectador
Monarca mediocre, bloqueando a la ilusión
Anclado a la pared...

e|----------------|
B|----------------|
G|----------------|
D|-6-6-6-6-6-6-6--|
A|-4-4-2-2-4-4-4--|
E|----------------|

e|--------------------------------------------------------------------------------|
B|--------------------------------------------------------------------------------|
G|---------------------------------------------------------2-------------------2-1|
D|-----------------2-------------------2-1-2-4-2-4-2-4-2-4---2-2-4-2-4-2-4-2-4----|
A|-2-4-2-4-2-4-2-4---2-2-4-2-4-2-4-2-4--------------------------------------------|
E|--------------------------------------------------------------------------------|
Sientes que se destruye todo lo que has construido
Sientes que de desmorona y se viene abajo a tus pies

PUENTE
C#m C#5

e|--------------------------------------------------------------------------------|
B|--------------------------------------------------------------------------------|
G|---------------------------------------------------------2-------------------2-1|
D|-----------------2-------------------2-1-2-4-2-4-2-4-2-4---2-2-4-2-4-2-4-2-4----|
A|-2-4-2-4-2-4-2-4---2-2-4-2-4-2-4-2-4--------------------------------------------|
E|--------------------------------------------------------------------------------|
Mejor abre la boca traga tierra y cállate
Deja estirar los brazos y alcanzar el alma

Coro
C#5    D#5       A|-7-9-7-9-7-9-7-9|
Déjame serpiente plumada
C#5    D#5       A|-7-9-7-9-7-9-7-9|
No me ahogues en la turbulencia
C#5      D#5    A|-7-9-7-9-7-9-7-9|
Trituras todas mis esperanzas
C#5      D#5       G#5
Y agotas el orgullo

PUENTE
C#m C#5

e|--------------------------------------------------------------------------------|
B|--------------------------------------------------------------------------------|
G|---------------------------------------------------------2-------------------2-1|
D|-----------------2-------------------2-1-2-4-2-4-2-4-2-4---2-2-4-2-4-2-4-2-4----|
A|-2-4-2-4-2-4-2-4---2-2-4-2-4-2-4-2-4--------------------------------------------|
E|--------------------------------------------------------------------------------|
Sientes que se destruye todo lo que has construido
Quítate de las cenizas que se encuentran bajo tus pies

C#5    D#5       A|-7-9-7-9-7-9-7-9|
Déjame serpiente plumada
C#5    D#5       A|-7-9-7-9-7-9-7-9|
No me ahogues en la turbulencia
C#5      D#5    A|-7-9-7-9-7-9-7-9|
Trituras todas mis esperanzas
C#5      D#5       G#5
Y agotas el orgullo

PUENTE
C#m C#5

e|--------------------------------------------------------------------------------|
B|--------------------------------------------------------------------------------|
G|---------------------------------------------------------2-------------------2-1|
D|-----------------2-------------------2-1-2-4-2-4-2-4-2-4---2-2-4-2-4-2-4-2-4----|
A|-2-4-2-4-2-4-2-4---2-2-4-2-4-2-4-2-4--------------------------------------------|
E|--------------------------------------------------------------------------------|
Deja respirar el humo que intoxica nuestro ser
Sientes que te desmoronas y te caes a nuestros pies

C#5    D#5       A|-7-9-7-9-7-9-7-9|
Déjame serpiente plumada
C#5    D#5       A|-7-9-7-9-7-9-7-9|
No me ahogues en la turbulencia
C#5      D#5    A|-7-9-7-9-7-9-7-9|
Trituras todas mis esperanzas
C#5      D#5       G#5
Y agotas el orgullo

e|--------------------------------------------------------------------------------|
B|--------------------------------------------------------------------------------|
G|---------------------------------------------------------2-------------------2-1|
D|-----------------2-------------------2-1-2-4-2-4-2-4-2-4---2-2-4-2-4-2-4-2-4----|
A|-2-4-2-4-2-4-2-4---2-2-4-2-4-2-4-2-4--------------------------------------------|
E|--------------------------------------------------------------------------------|

C#5    D#5       A|-7-9-7-9-7-9-7-9|
Déjame serpiente plumada
C#5    D#5       A|-7-9-7-9-7-9-7-9|
No me ahogues en la turbulencia
C#5      D#5    A|-7-9-7-9-7-9-7-9|
Trituras todas mis esperanzas
C#5      D#5       G#5
Y agotas el orgullo

(Que tal esta Guatemala!!??
somos viernes verde mucha
lo que acaban de oir una cancion que no tiene nombre..)
===================================================================================
TABBED BY VIUDA NEGRA
Esta dirección de correo electrónico está siendo protegida contra los robots de spam. Necesita tener JavaScript habilitado para poder verlo.