Seth - Sed



*************************************************
* Seth                                          *
* Sed                                           *
* www.RockChapin.ORG                            * 
*************************************************


Escrita por:Whiskey,Picho y Viuda Negra 
Música:Whiskey
Tablatura por : Whiskey.



Riff1 esta parte es muy rapida. (guitarra1)
|--------------------------------------------------------------------------|
|--------------------------------------------------------------------------|
|--------------------------------------------------------------------------|
|--------------------------------------------------------------------------|
|--------------------------------------------------------------------------|
|-15-15-14-14-13-13-12-12-11-11-10-10-9-9-8-8-7-7-6-6-5-5-4-4-3-3~~--------|

                                                      
      harmonico
Riff2 (solo#1 de entrada) (guitarra1)                 
        *---* 
|--------------------------------------------------------------------------|
|--------------------------------------------------------------------------|
|------------------------------------------------------------7--9fb--------|
|-------------------------------5-5-5h7-5h7-5/7-7h9-7h9-7h9----------------|
|---------3-3-3h5-3h5/7-5h7-5h7--------------------------------------------|
|-3-3-3-5------------------------------------------------------------------|

Riff3 x4  las 2 guitarras al mismo tiempo la segunda
guitarra entra a la 3ra. vez.
|-----------------------------------------------------------------------------------------------|
|-----------------------------------------------------------------------------------------------|
|-9-9-9-9-9-------9-9-9-9-9--7-7-7-7-7-------7-7-7-7-7--5-5-5-5-5-------5-5-5-5-5------3-3-3-3-3|
|-9-9-9-9-9-------9-9-9-9-9--7-7-7-7-7-------7-7-7-7-7--5-5-5-5-5-------5-5-5-5-5------3-3-3-3-3|
|-7-7-7-7-7-7-7-7-7-7-7-7-7--5-5-5-5-5-5-5-5-5-5-5-5-5--3-3-3-3-3-3-3-3-3-3-3-3-3-5-5--5-5-5-5-5|
|-----------------------------------------------------------------------------------------------|

|----------------------------|
|----------------------------| esta parte se hace con
palm mute la 4ta. vez.
|-3-3-3-3-3-3-3-3------------| 
|-3-3-3-3-3-3-3-3------------|
|-5-5-5-5-5-5-5-5------------|
|----------------------------|

Riff4 x2 (guitarra2)
|-----------------------------------------------------|

|-2-2-2/3-2-------------------------------------------|
|-2-2-2/3-2--5-5-5-5-5-5-5/7--7-7-7-7-7-7-7-7-7-7-7-7-|
|-2-2-2/3-2--5-5-5-5-5-5-5/7--7-7-7-7-7-7-7-7-7-7-7-7-|
|------------3-3-3-3-3-3-3/5--5-5-5-5-5-5-5-5-5-5-5-5-|
|-----------------------------------------------------|
                                harmonico
Riff4 (guitarra1)                 *--* 
|-------8-10b-10b-10b-10b-10b-10b-10fb-|
|--8-10--------------------------------|
|--------------------------------------|
|--------------------------------------|
|--------------------------------------| 1ra.vez
|--------------------------------------|

|-12-14p12-14p12-14p12-14p12-14p12-14p12-14p12-14p12-14fb-|
|---------------------------------------------------------|
|---------------------------------------------------------|
|---------------------------------------------------------|
|---------------------------------------------------------|
2da.vez.
|---------------------------------------------------------|


Riff5 x3 (guitarra2)
|------------------------------------------------|
|------------------------------------------------|
|-----------------------5-5-5-5-5-5-5-5-5-5-5-5--|
|-3-3-3-3-3--5-5-5-5-5--5-5-5-5-5-5-5-5-5-5-5-5--|
|-3-3-3-3-3--5-5-5-5-5--3-3-3-3-3-3-3-3-3-3-3-3--|
|-1-1-1-1-1--3-3-3-3-3---------------------------|

Riff5 (guitarra1)

|----------------------------------------------------------|
|----------------------------------------------------------|
|-----------------------------------2~~---------------2~~--|
|-3-3-3-3-3--5-5-5-5-5----------2-4---------------2-4------|

|-3-3-3-3-3--5-5-5-5-5------2-4---------------2-4----------|
1ra.vez
|-1-1-1-1-1--3-3-3-3-3--2-5---------------2-5--------------|

                                
                              harmonicos falsos
                         
*---------------------------*
|-------------------------------------------------------|
|-------------------------12b-12b-12b-12b-12b-12b-12fb--|
|-------------------------------------------------------|
|-3-3-3-3-3--5-5-5-5-5----------------------------------|
|-3-3-3-3-3--5-5-5-5-5----------------------------------|
2da.vez
|-1-1-1-1-1--3-3-3-3-3----------------------------------|

                             T      T      T      T
|-----------------------7~~-13p9p7-13p9p7-13p9p7-13p9p7--|
|--------------------------------------------------------|
|--------------------------------------------------------|
|-3-3-3-3-3--5-5-5-5-5-----------------------------------|
|-3-3-3-3-3--5-5-5-5-5-----------------------------------|
3ra.vez.
|-1-1-1-1-1--3-3-3-3-3-----------------------------------|


Riff4 x2 (guitarra2)
|-----------------------------------------------------|

|-2-2-2/3-2-------------------------------------------|
|-2-2-2/3-2--5-5-5-5-5-5-5/7--7-7-7-7-7-7-7-7-7-7-7-7-|
|-2-2-2/3-2--5-5-5-5-5-5-5/7--7-7-7-7-7-7-7-7-7-7-7-7-|
|------------3-3-3-3-3-3-3/5--5-5-5-5-5-5-5-5-5-5-5-5-|
|-----------------------------------------------------|

                               harmonico
Riff4 (guitarra1)                 *--* 
|-------8-10b-10b-10b-10b-10b-10b-10fb-|
|--8-10--------------------------------|
|--------------------------------------|
|--------------------------------------|
|--------------------------------------| 1ra.vez
|--------------------------------------|

|-12-14p12-14p12-14p12-14p12-14p12-14p12-14p12-14p12-14fb-|
|---------------------------------------------------------|
|---------------------------------------------------------|
|---------------------------------------------------------|
|---------------------------------------------------------|
2da.vez.
|---------------------------------------------------------|
 


 Riff3 (las 2 guitarras)
|-----------------------------------------------------------------------------------------------|
|-----------------------------------------------------------------------------------------------|
|-9-9-9-9-9-------9-9-9-9-9--7-7-7-7-7-------7-7-7-7-7--5-5-5-5-5-------5-5-5-5-5------3-3-3-3-3|
|-9-9-9-9-9-------9-9-9-9-9--7-7-7-7-7-------7-7-7-7-7--5-5-5-5-5-------5-5-5-5-5------3-3-3-3-3|
|-7-7-7-7-7-7-7-7-7-7-7-7-7--5-5-5-5-5-5-5-5-5-5-5-5-5--3-3-3-3-3-3-3-3-3-3-3-3-3-5-5--5-5-5-5-5|
|-----------------------------------------------------------------------------------------------|

|----------------------------|
|----------------------------| 
|-3-3-3-3-3-3-3-3------------| 
|-3-3-3-3-3-3-3-3------------|
|-5-5-5-5-5-5-5-5------------|
|----------------------------|

Riff4  (guitarra2)
|-----------------------------------------------------|

|-2-2-2/3-2-------------------------------------------|
|-2-2-2/3-2--5-5-5-5-5-5-5/7--7-7-7-7-7-7-7-7-7-7-7-7-|
|-2-2-2/3-2--5-5-5-5-5-5-5/7--7-7-7-7-7-7-7-7-7-7-7-7-|
|------------3-3-3-3-3-3-3/5--5-5-5-5-5-5-5-5-5-5-5-5-|
|-----------------------------------------------------|
                                harmonico
Riff4 (guitarra1)                 *--* 
|-------8-10b-10b-10b-10b-10b-10b-10fb-|
|--8-10--------------------------------|
|--------------------------------------|
|--------------------------------------|
|--------------------------------------| 1ra.vez
|--------------------------------------|

|-12-14p12-14p12-14p12-14p12-14p12-14p12-14p12-14p12-14fb-|
|---------------------------------------------------------|
|---------------------------------------------------------|
|---------------------------------------------------------|
|---------------------------------------------------------|
2da.vez.
|---------------------------------------------------------|


Riff5 x3 (guitarra2)
|------------------------------------------------|
|------------------------------------------------|
|-----------------------5-5-5-5-5-5-5-5-5-5-5-5--|
|-3-3-3-3-3--5-5-5-5-5--5-5-5-5-5-5-5-5-5-5-5-5--|
|-3-3-3-3-3--5-5-5-5-5--3-3-3-3-3-3-3-3-3-3-3-3--|
|-1-1-1-1-1--3-3-3-3-3---------------------------|

Riff5 (guitarra1)

|----------------------------------------------------------|
|----------------------------------------------------------|
|-----------------------------------2~~---------------2~~--|
|-3-3-3-3-3--5-5-5-5-5----------2-4---------------2-4------|

|-3-3-3-3-3--5-5-5-5-5------2-4---------------2-4----------|
1ra.vez
|-1-1-1-1-1--3-3-3-3-3--2-5---------------2-5--------------|

                                harmonicos falsos
                         
*---------------------------*
|-------------------------------------------------------|
|-------------------------12b-12b-12b-12b-12b-12b-12fb--|
|-------------------------------------------------------|
|-3-3-3-3-3--5-5-5-5-5----------------------------------|
|-3-3-3-3-3--5-5-5-5-5----------------------------------|
2da.vez
|-1-1-1-1-1--3-3-3-3-3----------------------------------|

                             T      T      T      T
|-----------------------7~~-13p9p7-13p9p7-13p9p7-13p9p7--|
|--------------------------------------------------------|
|--------------------------------------------------------|
|-3-3-3-3-3--5-5-5-5-5-----------------------------------|
|-3-3-3-3-3--5-5-5-5-5-----------------------------------|
3ra.vez.
|-1-1-1-1-1--3-3-3-3-3-----------------------------------|


Riff4  (guitarra2)
|-----------------------------------------------------|

|-2-2-2/3-2-------------------------------------------|
|-2-2-2/3-2--5-5-5-5-5-5-5/7--7-7-7-7-7-7-7-7-7-7-7-7-|
|-2-2-2/3-2--5-5-5-5-5-5-5/7--7-7-7-7-7-7-7-7-7-7-7-7-|
|------------3-3-3-3-3-3-3/5--5-5-5-5-5-5-5-5-5-5-5-5-|
|-----------------------------------------------------|

SOLO#2 (guitarra1)
|-----------------------------------------------------------------------------------------------|
|----------------------------------------------------10--12p10-12p10-12p10-12p10-12p10-12p10-12b|
|-----------------------------7-9rb-9rb-9/11-11-11-11-------------------------------------------|
|-------------5-5h7-7-7-7--7-9------------------------------------------------------------------|
|-7-7-7-6-6-6-----------------------------------------------------------------------------------|
|-----------------------------------------------------------------------------------------------|

|-8-8-10-8-8-11--8-8-10-8-8-11--8-8-10-8-8-11--8-8-10-8-8-10--8-8-10-8-8-10--|
|----------------------------------------------------------------------------|
|----------------------------------------------------------------------------|
|----------------------------------------------------------------------------|
|----------------------------------------------------------------------------|esta
parte va muy
|----------------------------------------------------------------------------|
rapida

|-11-10-8-10/11-10--10-8-------------------------------------|
|------------------------10-8--------------------------------|
|-----------------------------9-7--5-5h7-5-------------------|
|------------------------------------------7-5---------------|
|----------------------------------------------7-6-5---------|
|-----------------------------------------------------8-5~~--|


(las 2 guitarras)
|------------------------------------------------|
|------------------------------------------------|
|-----------------------5-5-5-5-5-5-5-5-5-5-5-5--|
|-3-3-3-3-3--5-5-5-5-5--5-5-5-5-5-5-5-5-5-5-5-5--|
|-3-3-3-3-3--5-5-5-5-5--3-3-3-3-3-3-3-3-3-3-3-3--|
|-1-1-1-1-1--3-3-3-3-3---------------------------|

Esta dirección de correo electrónico está siendo protegida contra los robots de spam. Necesita tener JavaScript habilitado para poder verlo.