Alux Nahual - Llora mi estrella



*************************************************
* Alux Nahual                                   *
* Llora mi estrella                             *
* www.RockChapin.ORG                            * 
*************************************************


Esta es la primera vez que hago una 
partitura así que espero no haberme  
Equivocado. 

(intro)

E|----------0---|-------------------|----------0---|-------------------|                                                 
B|------3-----3-|-----1---------1---|------3-----3-|-----1---------1---|
G|----0---0-----|---0---------0---0-|----0---0-----|---0---------0---0-|  
D|--4-----------|-------------------|--4-----------|-------------------|  
A|--------5-----|-3------3-3--------|--------5-----|-3------3-3--------|
E|--------------|-------------------|--------------|-------------------|

 
e|----------0---|-------------------|----------0---|-------------------|                                                 
B|------3-----3-|-----1---------1---|------3-----3-|-----1---------1---|
G|----0---0-----|---0---------0---0-|----0---0-----|---0---------0---0-|  
D|--4-----------|-------------------|--4-----------|-------------------|  
A|--------5-----|-3------3-3--------|--------5-----|-3------3-3--------|
E|--------------|-------------------|--------------|-------------------|


e|----------0---|--------------0-----|--------------0-------0|
B|------3-----3-|--------3-------3---|--------3-------3-----3|
G|----0---0-----|------0-----------0-|------0------------0--0|
D|--4-----------|----2------2--------|----2------2----------2|
A|--------5-----|--3-----------------|--3-------------------3|
E|--------------|--------------------|----------------------0|

(Y luego va así)

E|----------0---|-------------------|----------0---|-------------------|                                                 
B|------3-----3-|-----1---------1---|------3-----3-|-----1---------1---|
G|----0---0-----|---0---------0---0-|----0---0-----|---0---------0---0-|  
D|--4-----------|-------------------|--4-----------|-------------------|  
A|--------5-----|-3------3-3--------|--------5-----|-3------3-3--------|
E|--------------|-------------------|--------------|-------------------|

  EN EL FIRMAMENTO
 
e|----------0---|-------------------|----------0---|-------------------|                                                 
B|------3-----3-|-----1---------1---|------3-----3-|-----1---------1---|
G|----0---0-----|---0---------0---0-|----0---0-----|---0---------0---0-|  
D|--4-----------|-------------------|--4-----------|-------------------|  
A|--------5-----|-3------3-3--------|--------5-----|-3------3-3--------|
E|--------------|-------------------|--------------|-------------------|

  HAY UN RARO EVENTO

e|----------0---|--------------0----|--------------0-----0|
B|------3-----3-|--------3-------3--|--------3-------3---3|
G|----0---0-----|------0-----------0|------0-----------0-0|
D|--4-----------|----2------2-------|----2------2--------2|
A|--------5-----|--3----------------|--3-----------------3|
E|--------------|-------------------|--------------------0|

PARECIERA UNA ESTRELLA FUGAZ.

PERO NO SE MUEVE,
EL CUERPO CELESTE,
SOLO SUELTA UNA NIEVE,
AZUL EN VERDAD.

          G/D         C   
MATEMÁTICAS AL POR MAYOR, 
          G/D         C       Am 
PERO NADIE ENTIENDE LA RAZÓN. 

(coro)
        G     D       Am     C         
Y ES QUE LLORA MI ESTRELLA, 
        G                    D              Am                   C         
LA QUE ME VIO NACER, LA QUE ME VIO SOÑAR, TENDIDO EN LA HIERVA.
        G     D       Am     C 
Y ES QUE LLORA MI ESTRELLA,
        G                    D              Am                   C
A LA QUE LE PEDÍ EL AMOR DE LA NIÑA QUE CAUSABA MIS PENAS.
 G/D/Am/C/Am
LLORA MI ESTRELLA.

(tocando con el intro)

CADA TELESCOPIO,
QUE HAY EN LA TIERRA,
ESTUDIA EL FENÓMENO A SU MANERA.

PERO SI SUPIERAN,
QUE SOLO ES TRISTEZA,
QUE LOS ASTROS TAMBIÉN SIENTEN PENA.

G/D         C   
MATEMÁTICAS AL POR MAYOR, 
          G/D         C       Am 
PERO NADIE ENTIENDE LA RAZÓN. 

(coro)
 
(esto no estoy muy seguro)

 G              Cadd9     D        Am            C
Y ES QUE ELLA VIO MI LLANTO SOBRE MI ALMOHADA,
 G              Cadd9     D        Am            C
NO COMPRENDE LOS PROBLEMAS DE LA RAZA HUMANA,
 G              Cadd9     D        Am            C
ME ACARICIA CON SU LUZ DESDE OTRA GALAXIA,
 G              Cadd9     D        Am            C
TAN SERCA PERO TAN LEJOS COMO MI AMADA.

(coro y fin)

Gracias a todos los chavos del club de 
Fans de alux  por ayudarme,
a mi novia por la letra T.Q.M. uni,
Ojalá y les guste esta canción.
También si ustedes le encuentran algún error 
Por favor háganmelo saber.  

Esta dirección de correo electrónico está siendo protegida contra los robots de spam. Necesita tener JavaScript habilitado para poder verlo.