Ricardo Andrade y Los Ultimos Adictos - Tan vacio



*************************************************
* Los Ultimos Adictos                           *
* Tan Vacio                                     *
* www.RockChapin.ORG                            * 
*************************************************



Toda la rola se va con quintas (5ª) o Acordes de Poder y se repite 
la secuencia según la rola. Todas las quintas van apagadas y se 
apagan levantando los dedos del diapazón sin soltar las cuerdas ( 
no con la palma de la mano derecha). Las notas entre paréntesis 
son notas muertas, o sea que se tocan apagadas. Inténtelo, las 
quintas se tocan así. 


E 5ª (traste 12) 

------------------------------------------------------------------ 
------------------------------------------------------------------ 
------------------------------------------------------------------ 
-----14-(14)-(14)-14-(14)-(14)-14-(14)-(14)-14-(14)-(14)-14-14---- 
-----14-(14)-(14)-14-(14)-(14)-14-(14)-(14)-14-(14)-(14)-14-14---- 
-----12-(12)-(12)-12-(12)-(12)-12-(12)-(12)-12-(12)-(12)-12-12---- 


C# 5ª (traste 9) 
------------------------------------------------------------------- 
------------------------------------------------------------------- 
------------------------------------------------------------------- 
----11-(11)-(11)-11-(11)-(11)-11-(11)-(11)-11-(11)-(11)-11-11------ 
----11-(11)-(11)-11-(11)-(11)-11-(11)-(11)-11-(11)-(11)-11-11------ 
----9--(9)--(9)--9--(9)--(9)--9---(9)--(9)--9--(9)--(9)--9--9------ 


B5a (traste 7) 
------------------------------------------------------------------- 
------------------------------------------------------------------- 
------------------------------------------------------------------- 
-----9--(9)--(9)--9--(9)--(9)--9--(9)--(9)--9--(9)--(9)--9--9------ 
-----9--(9)--(9)--9--(9)--(9)--9--(9)--(9)--9--(9)--(9)--9--9------ 
-----7--(7)--(7)--7--(7)--(7)--7--(7)--(7)--7--(9)--(7)--7--7------ 


Intro: E 5ª E 5ª 

E 5ª 
Te espero y casi sin pensar 
C# 5a 
Me envuelvo en una descepción, 
B 5a 
Pues sin querer mi corazón, 
C# 5a 
Depende de lo que quieras 

E 5ª 
Y así me siento un tonto ves, 
C# 5a 
Pues sueño lo que no será 
B 5a 
Y es que no eres para mí 
C# 5a 
Y quiero estar contigo 

B 5a 
No sabes cuantas veces yo 
C# 5a 
Pinté tu nombre en la pared 
B 5a 
Tan solo por querer tener 
C# 5a 
Más cerca algo tuyo 

E 5ª 
Y ahora no puedo dormir 
C# 5a 
Pensando que por fin te vi 
B 5a 
Y sólo te pude decir 
C# 5a 
Lo nuestro es tan vacío 

E 5ª 
Y es que no importa el que decir 
C# 5a 
Si yo estoy preso en este amor 
B 5a 
Con sólo un beso tu podrás 
C# 5a 
Hacer guardar silencio 

E 5ª 
Y no es tan facil comprender 
C# 5a 
No verte y tus motivos 
B 5a 
Y siento tantos celos 
C# 5a 
Y soy tan inseguro 

E 5ª 
Te espero y casi sin pensar 
C# 5a 
Me envuelvo en una descepción 
B 5a 
Pues sin querer mi corazón 
C# 5a 
Solo quiere estar contigo. 

E (Fin) 

Bueno muchá, no esperen mucho de mí, empecé a estudiar guitarra pero 
por falta de tiempo no pude seguir. Sin embargo me gusta el rock 
chapín y con un poco de paciencia salió esto. Suena bien, disfrútenla. 
Cualquier comentario será bien recibido. 

Transcripción: Hans Martínez (Guatemala) 
Esta dirección de correo electrónico está siendo protegida contra los robots de spam. Necesita tener JavaScript habilitado para poder verlo.