Alux Nahual - Libre sentimiento



*************************************************
* Alux Nahual                                   *
* Libre Sentimiento                             *
* www.RockChapin.ORG                            * 
*************************************************


Esta es una excelente canción, quienes no la conocen realmente se
pierden una rola a la altura de cualquier gran artista (y mejor aun)
IMPORTANTE: Con capo en el 2do Traste

1. INTRO
    E                                 A
||--------5---5-------------5~~~----|-------------------------------|
||----2-3---3---3-2-------3---------|------3---2---2---------3-2~~--|
||----------------------4-----------|----0---0---0---------0--------|
||--0~~--------------0~~------------|-------------------------------|
||----------------------------------|-------------------------------|
||----------------------------------|--3--------------3--3~~--------|

  E                               A
|-------------------------------------|---------0--2h3p2p0---------||
|---------------------------0-------0-|------3---------------------||
|--------2---2------------2-------2---|----0-----------------------||
|------0---0---0--------0-------0-----|----------------------------||
|-5--4-------------0--2~------0-------|----------------------2s4---||
|-------------------------------------|--3~~-----------------------||


2. VERSOS
   E                                     A
||-------5---5-------------------------|-----------------------------|
||---2-3---3---3-2-------3--5------2---|-----3---2---2-----3---2---2-|
||---------------------4---------0---0-|---0---0---0-----0---0---0---|
||-0~~--------------0~~--------0~------|-----------------------------|
||-------------------------------------|-----------------------------|
||-------------------------------------|-3~~------------3~~----------|

  E                                     A
|-------5---5-------------------------|------------------------------|
|---2-3---3---3-2-------3--5------2---|----3---2---2------3---2---2--|
|---------------------4---------0---0-|--0---0---0--0---0---0---0--0-|
|-0~~--------------0~~--------0~------|------------------------------|
|-------------------------------------|------------------------------|
|-------------------------------------|-3~~------------3~~-----------|
  Las canciones  en la radio       pintan  el    amor
  como un ave  prisionera  porque alguien necesita su canto.   Si así

|--------------------------------|-----------------------2-------2--|
|-------0-------0--------0---0---|-------0-------0-----3---3-----3--|
|-----0-------0--------0---0---0-|-----0-------0-----0-------0---0--|
|---4-------4-------4------------|---4-------4-------------------0--|
|-2-------4-------5--------------|-2-------4---------------------x--|
|--------------------------------|-----------------3~~-----------3--|
fuera        te diría   te amo    porque   te necesitoo...


3. PRE CORO 1
  |----------0-------------------0---------|
  |--------0---0---------------3-------4.-VERSOS
  |------2-------2-----------4-------------|
  |----4-----------4-------4---------------|
  |--0-------------------0-----------------|
  |----------------------------------------|
pero yo te necesito      po.....orque te amo


4. VERSOS

El viento me dijo en secreto, que no te deje escapar
sin embargo que no encierre tu vuelo, pues eso mata el sentimiento

Si siendo libre decides venir yo estaré abrazando tu nombre...


5. CORO (punto(.) es tocar hacia abajo, comilla (') hacia arriba.)

       .     .      ' .  . .
  |----------------------0-0-----3-----2-----0-----3-----2-----0----|
  |----3-----3------3-3--2-2-------3-----3-----3-----3-----3-----3--|
  |----2-----2------2-2--2-2---------0-----0-----------0-----0------|
  |----0-----0------0-0--2-2----------------------------------------|
  |----0-----0------0-0---------------------------------------------|
  |------------------------------3~~---------------3~~--------------|
Porque
   estoy enamorado de ti
De tu forma de ser  de tu libre  sentimiento


6. VERSOS (+ solo de flauta)

La canción esta en mis manos  y no la quiero soltar
Es lo único que tengo  para decirte que te quiero

Libre, con toda tu imaginación, con tu orgullo y tus sueños

7. CORO
       .     .          . .
  |---------------------0-0-----3-----2-----0-----3-----2-----0----|
  |----3-----3----------2-2-------3-----3-----3-----3-----3-----3--|
  |----2-----2----------2-2---------0-----0-----------0-----0------|
  |----0-----0----------2-2----------------------------------------|
  |----0-----0-----------------------------------------------------|
  |-----------------------------3~~---------------3~~--------------|
Porque
   estoy enamorado de ti
De tu forma de ser  de tu libre  sentimiento

8. SOLO DE VIOLÍN

9. CORO (x4)

Yoo... estoy enamorado de ti
De tu forma de ser  de tu libre  sentimiento

10. FINAL (x8)

  |-3-----2-----0-----3-----2-----0----|
  |---3-----3-----3-----3-----3-----3--|
  |-----0-----0-----------0-----0------|
  |------------------------------------|
  |------------------------------------|
  |-3~~---------------3~~--------------|
_______________________________________________
Espero sea del agrado de todos. Si tienen alguna pregunta:
VIUDA NEGRA

=================================================
Transcripción de Viuda Negra
(Esta dirección de correo electrónico está siendo protegida contra los robots de spam. Necesita tener JavaScript habilitado para poder verlo.)