Razones de Cambio - Luna



*************************************************
* Razones de Cambio                             *
* Luna                                          *
* www.RockChapin.ORG                            * 
*************************************************
 

1er solo:

e ------------11-12-11---------11-------14/16----------
b -----12---12--------12-12/14----14-12-------14/16----
g –/11---11--------------------------------------------
D -----------------------------------------------------
A -----------------------------------------------------
E -----------------------------------------------------
 
D -------------------------------------------
A -------------------------------------------
E -11-13-11-8/9-8-9-8-6----------------------
D ----------------------9--------------------
A -------------------------------------------
E -------------------------------------------
 
Si               Mi  Si
Haz visto vez alguna
                Mi   Si
Como brilla la luna,
                     Mi
En la soledad de la noche
Dom#                        Si
Pero sin embargo yo percibo paz
            Mi  Si Mi
Yo percibo paz 
Dom# 
Loco y amante,
No se,
Mi                Si
Enamorado talvez,
De tu resplandor
        Mi
Y tu belleza
Dom#
Pues en esta soledad
Mi
Te reprocho mis errores
       Si
Una vez mas
       Mi
Una vez mas
       Si   
En el ocaso
           Mi      Si Mi
De esta tarde gris 
 
Dom#         Mi
Oh! Luna buena,
                         Si
Dime porque no puedo amarla
             Mi
Y solamente soñarla 
                 Si
porque no puedo amarla
             Mi
Y solamente soñarla 
 
Dom#                Mi
Entre deseos frustados
                            Dom#
Entre historietas narradas,
                  Si      Mi Si
Entre delirio y anciedad 
          Mi                Si  Mi Si
oh dime luna...Ven! Dime porque?
               
Has visto a la luna 
Si Mi...
 
Alfredo Asensio Figueroa
A.A.F.enlared
Esta dirección de correo electrónico está siendo protegida contra los robots de spam. Necesita tener JavaScript habilitado para poder verlo.
http://www.geocities.com/aafenlared