Radio Viejo - El margen



*************************************************
* Radio Viejo                                   *
* El Margen                                     *
* www.RockChapin.ORG                            * 
*************************************************


e|---------------|
B|-----1-----1---|
G|---2-----2---2-|
D|---------------|
A|-0-----3-------|
E|---------------|
Necesito una cerveza
Algo que me suba a la cabeza
Alguien que abra mis sentidos
Alguien que haga
Que me sienta vivo
e|--------------------------|
B|--------------------------|
G|----------------------7-5-|
D|-7-7-7-5---7-7-7-7-5-7----|
A|---------7----------------|
E|--------------------------|

e|-------------------------|
B|-------------------------|
G|-------------------------|
D|-7-7-7-5---7-7-7-7-5-----|
A|---------7-----------7-5-|
E|-------------------------|

G5                     A5

e|--------------------------|
B|--------------------------|
G|----------------------7-5-|
D|-7-7-7-5---7-7-7-7-5-7----|
A|---------7----------------|
E|--------------------------|

e|-------------------------|
B|-------------------------|
G|-------------------------|
D|-7-7-7-5---7-7-7-7-5-----|
A|---------7-----------7-5-|
E|-------------------------|

A                          C5  D5
No es una historia de amor,
A                          D5  C5
Es una historia sensacional
A                          C5  D5
Y eres tu y somos los dos
A                          D5  C5
Y estamos siempre para el amor
G5               A5
Tu quieres cama, sexo y pasión
A                   D5   C5
Amantes sin control,
A                   C5   D5
Amantes siempre contra el pudor
A                   D5   C5
Y eres tu y somos los dos,
A                   C5   D5
Y estamos siempre para el amor
GE               A5
Tu quieres cama, sexo y pasión

G5                   A5
Necesito una cerveza
G5                           A5
Algo que me suba a la cabeza
G5                            A5
Alguien que abra mis sentidos
G5                A5
Alguien que haga
G5                 A5
Que me sienta vivo

e|--------------------------|
B|--------------------------|
G|----------------------7-5-|
D|-7-7-7-5---7-7-7-7-5-7----|
A|---------7----------------|
E|--------------------------|

e|-------------------------|
B|-------------------------|
G|-------------------------|
D|-7-7-7-5---7-7-7-7-5-----|
A|---------7-----------7-5-|
E|-------------------------|

A5                       D5  C5
No se ni en donde estoy,
A5                       C5  D5
Y ya no se ni a donde voy
A5                       D5  C5
Y eres tu y somos los dos,
A5                       C5  D5
Y estamos siempre para el amor
G5               A5
Tu quieres cama, sexo y pasión

G5                   A5
Necesito una cerveza
G5                           A5
Algo que me suba a la cabeza
G5                            A5
Alguien que abra mis sentidos
G5                A5
Alguien que haga
G5                 A5
Que me sienta vivo

e|---------------|
B|-----1-----1---|
G|---2-----2---2-|
D|---------------|
A|-0-----3-------|
E|---------------|
Solos tu y yo, la noche,
Solos tu y yo
Sin nada
Nada de luz,
Nada de sonidos,
Tus piernas tibias nena
Tapando mis oídos
Nada de amor salvaje,
Hasta pasar el margen
El margen
El margen
El margen...
Nena siénteme dentro de ti

Necesito una cerveza
Algo que me suba a la cabeza
Alguien que abra mis sentidos
Alguien que haga
Que me sienta vivo

e|--------------------------|
B|--------------------------|
G|----------------------7-5-|
D|-7-7-7-5---7-7-7-7-5-7----|
A|---------7----------------|
E|--------------------------|

e|-------------------------|
B|-------------------------|
G|-------------------------|
D|-7-7-7-5---7-7-7-7-5-----|
A|---------7-----------7-5-|
E|-------------------------|

A5                       D5  C5
No se ni en donde estoy,
A5                       C5  D5
Y ya no se ni a donde voy
A5                       D5  C5
Y eres tu y somos los dos,
A5                       C5  D5
Y estamos siempre para el amor
G5               A5
Tu quieres cama, sexo y pasión

TABBED BY VIUDA NEGRA
Esta dirección de correo electrónico está siendo protegida contra los robots de spam. Necesita tener JavaScript habilitado para poder verlo.