Radio Viejo - Angel



*************************************************
* Radio Viejo                                   *
* Angel                                         *
* www.RockChapin.ORG                            * 
*************************************************

VB


INTRO

e|---------3---------------3-------------------------|
B|-----3-----3---------3-----3---------3-----3-------|
G|---0---0-----0-----0---0-----0-----0-----0---------|
D|---------------------------------------------------|
A|-------------------------------0-3-----2-----3-2---|
E|-3-------------0-1-------------------------------3-|

RECUERDO AQUEL DIA QUE TE CONOCIII
FUE COMO UN IMPACTO CUANDO YO TE VI.

e|---------0---------------2---------------0---------------2-----|
B|-----0-----0---------3-----3---------1-----1---------3-----3---|
G|---0---0-----0-----4---4-----4-----0---0-----0-----2---2-----2-|
D|-2---------------------------------------------0-0-------------|
A|---------------0-2-------------0-3-----------------------------|
E|---------------------------------------------------------------|
MI CORAZON PALPITABA LENTAMENTE
NO PUDE RECISTIR A TU MIRADA DE ANGEL.


e|---------3---------------3-------------------------|
B|-----3-----3---------3-----3---------3-----3-------|
G|---0---0-----0-----0---0-----0-----0-----0---------|
D|---------------------------------------------------|
A|-------------------------------0-3-----2-----3-2---|
E|-3-------------0-1-------------------------------3-|
NUNCA HABIA SENTIDO ALGO ASI
CUANDO ME MIRASTES YO ME ENAMORE DE TI

Em              Bm    C  D
Y EN MI CANCION TRATO DE RECORDARTE
Em           Bm        C       D
PORQUE NO HE VUELTO YO A SABER DE TI

CORO
Em    Bm
ANGEL DONDE ESTAS
C           D
EN EL CIELO SUPONGO
Em    Bm
ANGEL VEN A MI
C                       D
QUE ESTE ES UN INFIERNO SI NO ESTAS AQUI


e|---------3---------------3-------------------------|
B|-----3-----3---------3-----3---------3-----3-------|
G|---0---0-----0-----0---0-----0-----0-----0---------|
D|---------------------------------------------------|
A|-------------------------------0-3-----2-----3-2---|
E|-3-------------0-1-------------------------------3-|
EN TODOS MIS SUEÑOS APARECES SIEMPRE TU
NO QUISIERA DESPERTAR PUES AHI SOY FELIZ

Em           Bm             C  D
A MIS AMIGOS LES HE HABLADO DE MI ANGEL
Em      Bm        C         D
Y ELLOS DICEN QUE ERES SOLO UNA ILUSION.

Em    Bm
ANGEL DONDE ESTAS
C           D
EN EL CIELO SUPONGO
Em    Bm
ANGEL VEN A MI
C                       D
QUE ESTE ES UN INFIERNO SI NO ESTAS AQUI

Em    Bm
ANGEL DONDE ESTAS
C             D
QUE YO QUIERO TENERTE
Em    Bm
ANGEL VEN AQUI
C               D
COMO LA PRIMERA VEZ...
QUE TE VI


e|---------3---------------3-------------------------|
B|-----3-----3---------3-----3---------3-----3-------|
G|---0---0-----0-----0---0-----0-----0-----0---------|
D|---------------------------------------------------|
A|-------------------------------0-3-----2-----3-2---|
E|-3-------------0-1-------------------------------3-|
ANGEL UUUUU...

TABBED BY: VIUDA NEGRA
Esta dirección de correo electrónico está siendo protegida contra los robots de spam. Necesita tener JavaScript habilitado para poder verlo.