Legion - Verano



*************************************************
* Legion                                        *
* Verano                                        *
* www.RockChapin.ORG                            * 
*************************************************




3:-9---9-----9-/8---8------7-6-6/8---8-----7-
2:---9-----9-------7-----7----5-5/--7-----7---
1:-------9-------------7------5-4/-------7-----  2 times

verso:A
3:-4-4-4-4-4-4-4-4-4-4--4-4-4-4-4-4-4-2-2-2----
2:-5-4-5-5-4-5-4-7-7-7--5-4-5-5-4-5-4-2-2-2----

verso:B es igual al anterior solo con este cambio
3:-----------------------------------------6-6-6-6-
2:-----------------------------------------5-5-5-5-
1:-----------------------------------------5-5-5-5-

fill:1 flanger y dist
6:-9-9-9-9-7-7-7-7-----------------------
5:-------------------7-7-7-7-9-7-9-7-----
4:--------------------------------9--------   4 times

fill:2 flanger y dist
6:-9-9-9-9--------11-11--------------------
5:----------11-11--------7-7-7-7-----9-9--
4:---------------------------------9-9------    4 times

lirycs:
intro:

verso:(A)
ya no calientas como sol,
y yo no entiendo por que?
verso:(A)
si detrás de esa luz te espero..............

intro:

verso:(B)
no puedo de mi sacar
tu extra*a forma de ser
verso:(B)
vivir ya no es para mi, espera.............

(coro) flanger y dist
mi                 si                do#m     si
rojo, frío verano, me envuelves               4 times

fill:1

verso:(B)
te adoraba como a un dios
lo ignoraste sin saber
verso:(B)
en el camino ya estoy, espera.............

(coro) flanger y dist
rojo, frío verano, me envuelves               2 times

fill:2

(coro) flanger y dist
rojo, frío verano, me envuelves               4 times
(no puedo, no puedo, me muero, me muero, amor...............)

 
Tabbed By:  Adolfo Iván Muñoz Chew
Esta dirección de correo electrónico está siendo protegida contra los robots de spam. Necesita tener JavaScript habilitado para poder verlo.