La Tona - Solitario sol



*************************************************
* La Tona                                       *
* Solitario Sol                                 *
* www.RockChapin.ORG                            * 
*************************************************


Bueno esta es una transcripcion de una banda de rock chapin llamada
La Tona es la primera que hago, asi que espero que la disfruten,un
saludo a toda mara rockera, en especial a todos mis cuates que
espero volver a ver, salud mucha!!!




Intro:
        A              A                 D               F

E |------------|------------------|--------------|------------------|
B |------------|-0----------------|--------------|------------------|
G |-----6------|---6---------6----|------7-------|-------10---------|   
D |-----7------|-----7----7-----7-|---7-----7----|---10------10-----|
A |-----7------|-------7----------|-5----------5-|-8--------------8-|
E |-----x------|------------------|--------------|------------------|
                                                                        4 veces
E |------------|------------------|--------------|------------------|
B |------------|-0----------------|--------------|------------------|
G |-----6------|---6---------6----|------7-------|-----------10-----|
D |-----7------|------7---7-----7-|---7-----7----|-----10-----------|
A |-----7------|--------7---------|-5----------5-|-8----------------|
E |-----x------|------------------|--------------|------------------|

 
A            D                     F

Vuelve atras y mira quien te sigue

A                 D             F
es tu sombra otra vez nada mas.

A            D                     F
Vuelvo atras y miro quien me sigue

A                 D             F
es tu sombra otra vez nada mas.


A-F-G-A* x4; la nota con * suena mejor con cejilla


A             D           F            A
Solitario sol vagabundeando entre nubes,

         D            F           A
entre nubes, entre nubes sin color

A             D           F              A
Solitario sol vagabundeando entre piedras,

           D              F           A
entre piedras, entre piedras sin calor.

A-F-G-A*

A      F          G     A
Sangre del cielo cae

A      F          G     A
Sangre del cielo cae

A-F-G-A*

A              D              F
Sirenas al costado de mi balsa

A                    D    F
los delfines quieren otra vez volar

A                  D            F
corales que te juegan y te atrapan entre

A                        D       F
sangre de tiburones y un poco de sal, dame.

A-F-G-A*

A      F          G     A
Sangre del cielo dame

A      F          G     A
Sangre del cielo dame

A-F       G                A
La verdad no necesitas nada

A-F       G                  A
La verdad no necesitamos nada

A-F       G                A
La verdad no necesitas nada

A-F       G                  A
La verdad no necesitamos nada.


Nota: el acorde de D suena mejor en quintas D5
      y el acorde de G suena mejor con cejilla

Bueno espero que le hayan agarado la honda, es una buena rola
de una de las mejores bandas del rock chapin

que viva Guatemala!!!!!! t`ziquin 

Nery Alexander Pasayes Lopez