La Tona - Hansel y Gretel



*************************************************
* La Tona                                       *
* Hansel y Gretel                               *
* www.RockChapin.ORG                            * 
*************************************************


e|-----------------------------3p2p0-
B|-----------------------------------
G|-2---2-----0---0-2---2-----0-------
D|---0---0-2---2-----0---0-2---------
A|-----------------------------------
E|-----------------------------------

e|---------------------------------|
B|-----------------------------3-0-|
G|-2---2-----0---0-2---2-----0-----|
D|---0---0-2---2-----0---0-2-------|
A|---------------------------------|
E|---------------------------------|
Hansel te busca,
Gretel que se esconde,
Hansel la llora,
Gretel que te absorbe.
Este es un mundo de fantasía
Donde se ahoga todo al respirar
Y se rompe todo al abrazarte
No comas más pastel te puede empacar.

D   G       D      G     D       G
Los caminos son de polvo de chocolate
D     G        D       G
Los árboles se vuelven de turrón.
D     G     D               G
Si te tiras del borde de un caño
D      G      D          G        C
Talvez podrás matar esta obsesión.

Em            C
Las cosas que hiciste ayer
Em                C                Em
Son el reflejo de lo que te espera y ... Llega.
C               Em
Las sombras que en sueños viste ayer
C                  Em
Son el presagio de lo que te espera.
C                    Em
Las marcas del hielo sobre mi piel
C                         Em
Seran la prueba de que tu amor no quema!
C                   Em
Su cigarrillo incrustado en mi piel
C                     Em
Sera la prueba de que esa chica quema.

e|----------------|
B|----------------|
G|----------------|
D|-4-4--4-9-9-9-9-|
A|-2-2--2-7-7-7-7-|
E|----------------|

SOLO DE GUITARRA
e|-14p13p11-14p13p11-14p13p11-14p13p11-14p13p11-14p13p11-fb14-
B|------------------------------------------------------------
G|------------------------------------------------------------
D|------------------------------------------------------------
A|------------------------------------------------------------
E|------------------------------------------------------------

e|-12-10----10---------------------------------------12------
B|-------12----12-10-------------------8-10-12-10-------12-10
G|-------------------12-9----9-12-9-7/9-----------12---------
D|------------------------12---------------------------------
A|-----------------------------------------------------------
E|-----------------------------------------------------------

e|----------10-12-15-14-12----12----------------------------10
B|-12-12-12----------------15----15-12-15-------------10-12---
G|----------------------------------------14-7-9-9/11---------
D|------------------------------------------------------------
A|------------------------------------------------------------
E|------------------------------------------------------------

e|----------------10----------------10----------------10
B|----------10-12-------------10-12-------------10-12---
G|-7-9-9/11----------7-9-9/11----------7-9-9/11---------
D|------------------------------------------------------
A|------------------------------------------------------
E|------------------------------------------------------

e|-10-12-12-12-12-14-14-14-12-10----10-------------------
B|-------------------------------12----12-10-------------
G|-------------------------------------------12-9--9-12-9
D|-----------------------------------------------12------
A|-------------------------------------------------------
E|-------------------------------------------------------

e|----------------10----------------10----------------10
B|----------10-12-------------10-12-------------10-12---
G|-7-9-9/11----------7-9-9/11----------7-9-9/11---------
D|------------------------------------------------------
A|------------------------------------------------------
E|------------------------------------------------------

e|----------------------|
B|----------------------|
G|-7-7-7-7-7-7-7--------|
D|-7-7-7-7-7-7-7--------|
A|-5-5-5-5-5-5-5--------|
E|----------------------|

e|-----------------------------3p2p0-
B|-----------------------------------
G|-2---2-----0---0-2---2-----0-------
D|---0---0-2---2-----0---0-2---------
A|-----------------------------------
E|-----------------------------------

e|---------------------------------|
B|-----------------------------3-0-|
G|-2---2-----0---0-2---2-----0-----|
D|---0---0-2---2-----0---0-2-------|
A|---------------------------------|
E|---------------------------------|
Hansel se ensucia,
Gretel que se rie al verlo caer,
Hansel se muere,
Gretel que se vuelve a cambiar la piel.
(Yodelin)
Ahhhhh


===================================================================
TABLATURA HECHA POR
VIUDA NEGRA
Esta dirección de correo electrónico está siendo protegida contra los robots de spam. Necesita tener JavaScript habilitado para poder verlo.