Influenza - Si no hay sentimiento



*************************************************
* Influenza                                     *
* Si no hay sentimiento                         *
* www.RockChapin.ORG                            * 
*************************************************
 

INTRO:
 
    (dos veces)
E|--------17------|--------17------------------|
B|---15-----17-15-|---15-----17-15--15---------|
G|-14--14---------|-14--14--------14--14b-12---|
D|----------------|----------------------------|
A|----------------|----------------------------|
E|----------------|----------------------------|
 
 
E|-------17-----------17-15-14-14p15-14---17--|
B|---15----17-15--15-------------------15-----|
G|-14--14-------14--14------------------------|
D|--------------------------------------------|
A|--------------------------------------------|
E|--------------------------------------------|
 
 
La        Sol             Re
De pronto solos en este lugar
          Sol
tantas ganas de podernos amar
La            Sol        Re
tu cuerpo ardiendo sobre mi
        Sol
no me deja pensar 
La          Sol         Do
y ya no siento aquel vacío
Mi         X    Sol                La    
que me obligaba a esconder mis sentidos
 
Re      
Tu pulso aumenta 
        La     
y tus manos vacías
    Fa#        
de pronto me sienten
     Sol
tu sientes las mías
Re     
miro tus ojos
La
veo el camino
Sol
besos tus labios
 
y no hay sentimiento
 
E|-------17-----------17--------17-15-14-14p15-14--17--|
B|---15----17-15--15----17--15-------------------15----|
G|-14--14-------14--14----14--14-----------------------|
D|-----------------------------------------------------|
A|-----------------------------------------------------|
E|-----------------------------------------------------|
 
(Lo demás es igual)
 
Se ahoga mi mente que pasaría
despertar contigo que fantasía
no piensas nada comprometida
sin saberlo
 
y ya no siento aquel vacío
que me obligaba a esconder mis sentidos
Tu pulso aumenta 
tus manos vacías
de pronto me sienten
tu sientes las mías
miro tus ojos
veo el camino
besos tus labios
 
Noche salvaje
momentos sin romance
y no puedes dejar de acercarte
cae tu ropa
luego la mía
que estamos haciendo
si no hay sentimiento
 
 
SOLO:
 
 
E|---------19--------------------------------19b----|
B|-------17--19-------------------------------------|
G|-------------17b17-17-15--------------------------|
D|------------------------17-17/20-18h17-18---------|
A|----14--------------------------------------------|
E|-/15-------------------------------------15-------|
 
E|----------------------------------------------------------------------|
B|---15-14p15h14\12----15-14p15h14\12----15-14p15h14\12--19-17h15p17----|
G|-----------------14----------------14----------------14---------------|
D|-14----------------16----------------17-------------------------------|
A|----------------------------------------------------------------------|
E|----------------------------------------------------------------------|
 
E|---------------------------------------------------------------|
B|-15-14p15h14-----------15-14p15h14-----15-14p15h14-------------|
G|------------14-11-12-14-----------14-11-----------14-11-12-14--|
D|---------------------------------------------------------------|
A|---------------------------------------------------------------|
E|---------------------------------------------------------------|
 
E|-----------------------------------------------|
B|-12p14h12\11--------19b19---------------19\----|
G|------------12--12-------19-----------19-------|
D|--------------14-----------19-17\16\14---------|
A|-----------------------------------------------|
E|-----------------------------------------------|
 
D|----------------------------------------------17-21-19-17-19-----|
A|-12p13h12p15-13p15h13p17-15p17h15p19-19p20h19p-------------------|
E|-----------------------------------------------------------------|
D|-----------------------------------------------------------------|
A|-----------------------------------------------------------------|
E|-----------------------------------------------------------------|
 
 
(aquí se toca en un tono más alto)
 
Do#         La           Re
y ya no siento aquel vacío
Fa#m          Sol#   La        Sim            
que me obligaba a esconder mis sentidos
Mi    
Tu pulso aumenta 
     Sim
tus manos vacías
Sol#        
de pronto me sienten
      La
tu sientes las mías
Mi  
miro tus ojos
Sim
veo el camino
Sol#
besos tus labios
 
y no hay sentimiento
 
 
SOLO:
                                     Y no hay senti-
E|-------19-----------19-----------19-17-16-14/16-|
B|---17----19-17--17----19-17--17-----------------|
G|-16--16-------16--16-------16--16---------------|
D|------------------------------------------------|
A|------------------------------------------------|
E|------------------------------------------------|
   mientoo...uh....
E|-20-20-16-16-17-17-16-16-17-17-16-16-17-17-16-16-|
B|-------------------------------------------------|
G|-------------------------------------------------|
D|-------------------------------------------------|
A|-------------------------------------------------|
E|-------------------------------------------------|
 
E|-20-20-16-16-17-17-16-16-20-20-16-16-17-17-16-16-|
B|-------------------------------------------------|
G|-------------------------------------------------|
 
E|-14-16-17-20-19\-----|
B|---------------------|
G|---------------------|
 
y no hay sentimiento
 
__________________________________________________
Alfredo Asensio Figueroa
A.A.F.enlared
Esta dirección de correo electrónico está siendo protegida contra los robots de spam. Necesita tener JavaScript habilitado para poder verlo.
http://www.geocities.com/aafenlared