Extincion - La grieta



*************************************************
* Extincion                                     *
* La Grieta                                     *
* www.RockChapin.ORG                            * 
*************************************************


Afinación en Drop D

e|-------------------------------------------|
B|-------------------------------------------|
G|-------------------------------------------|
D|-------------------------------------------|
A|-4-2-4-2-4-2-4-2-4-2-4-2-4-2-4-2-4-5-5-5---|
D|-4-2-4-2-4-2-4-2-4-2-4-2-4-2-4-2-4-5-5-5---|

No quisiera dejarla caer
No quisiera mirarla morir
Esta sangre que grita entre mi
Es por odio y dejo que pase otra vez.

E|---------------7nh--------------7nh-----------7nh---------|
B|-----------7nh---------------7nh------------------7nh-----|
G|-------7nh---------------7nh--------------7nh-------------|
D|----------------------------------------------------------|
A|-4-3-2-------------4-3-2------------2-4-3------------2-4-3|
D|-4-3-2-------------4-3-2------------2-4-3------------2-4-3|

E|-----2-----2-------|
B|-----2-----2-------|
G|-----2-----2-----3-|
D|-----------------3-|
A|-2-4---2-4---2-4-1-|
D|-2-4---2-4---2-4---|
La grieta
La grieta
La grieta
La grieta en tus manos está.

e|-------------------------------------------|
B|-------------------------------------------|
G|-------------------------------------------|
D|-------------------------------------------|
A|-4-2-4-2-4-2-4-2-4-2-4-2-4-2-4-2-4-5-5-5---|
D|-4-2-4-2-4-2-4-2-4-2-4-2-4-2-4-2-4-5-5-5---|
No quisiera dejarla morir
No quisiera dejarla caer
Esta sangre que fluye entre ti
Es por odio no quiero que pase otra vez

E|---------------7nh--------------7nh-----------7nh---------|
B|-----------7nh---------------7nh------------------7nh-----|
G|-------7nh---------------7nh--------------7nh-------------|
D|----------------------------------------------------------|
A|-4-3-2-------------4-3-2------------2-4-3------------2-4-3|
D|-4-3-2-------------4-3-2------------2-4-3------------2-4-3|

E|-----2-----2-------|
B|-----2-----2-------|
G|-----2-----2-----3-|
D|-----------------3-|
A|-2-4---2-4---2-4-1-|
D|-2-4---2-4---2-4---|
La grieta
La grieta
La grieta
La grieta en tus manos esta.

e|------------|
B|------------|
G|------------|
D|-4-2--------|
A|-----3-3h4--|
D|-----------4|

e|-----------------------------------------------------------|
B|-----------------------------------------------------------|
G|------6-5-4-------6-5-4-------6-5-4-------6-5-4-------6-5-4|
D|------6-5-4-------6-5-4-------6-5-4-------6-5-4-------6-5-4|
A|4-3-2-4-3-2-4-3-2-4-3-2-4-3-4-4-3-2-4-3-2-4-3-2-4-3-2-4-3-2|
D|4-3-2-------4-3-2-------4-3-2-------4-3-2-------4-3-2------|

e|-------------------------------------------|
B|-------------------------------------------|
G|-------------------------------------------|
D|-------------------------------------------|
A|-4-2-4-2-4-2-4-2-4-2-4-2-4-2-4-2-4-5-5-5---|
D|-4-2-4-2-4-2-4-2-4-2-4-2-4-2-4-2-4-5-5-5---|
Yo quisiera dejarla correr
Yo quisiera no verla caer
Esta sabia que fluye entre mi
Es por odio y dejo que pase otra vez.

E|-----2-----2-------|
B|-----2-----2-------|
G|-----2-----2-----3-|
D|-----------------3-|
A|-2-4---2-4---2-4-1-|
D|-2-4---2-4---2-4---|
La grieta
La grieta
La grieta
La grieta
La grieta
La grieta....

E|-----2-----2-------|
B|-----2-----2-------|
G|-----2-----2-----3-|
D|-----------------3-|
A|-2-4---2-4---2-4-1-|
D|-2-4---2-4---2-4---|
La grieta
La grieta
La grieta
=====================================================
Tabbed By Viuda Negra
Si quieren alguna otra tab chapina
escríbanme a Esta dirección de correo electrónico está siendo protegida contra los robots de spam. Necesita tener JavaScript habilitado para poder verlo.