Conciencia Sublime - Flores con veneno



*************************************************
* Conciencia Sublime                            *
* Flores con Veneno                             *
* www.RockChapin.ORG                            * 
*************************************************
 
Así toco esta rola 
 
Acordes: 
 
A    5   7   7   6  5  5
C    8  10  10   9  8  8
B    7   9   9   8  7  7 
F#   2   4   4   3  2  2 
 
INTRO 
 
e --5---8---7-7-7-7-7---         
B --5---8---7-7-7-7-7---
G --6---9---8-8-8-8-8---
D --7---10--9-9-9-9-9---
A --7---10--9-9-9-9-9---
E --5---8---7-7-7-7-7---
 
 
e --5---8---7-7-7-7-7---         
B --5---8---7-7-7-7-7---
G --6---9---8-8-8-8-8---  
D --7---10--9-9-9-9-9---
A --7---10--9-9-9-9-9---
E --5---8---7-7-7-7-7---
 
 
e --5-5-5-5-5----8--8--8--8--8----7-7-------------
B --5-5-5-5-5----8--8--8--8--8----7-7-------------
G --6-6-6-6-6----9--9--9--9--9----8-8-------------
D --7-7-7-7-7----10-10-10-10-10---9-9-------------     Tres veces
A --7-7-7-7-7----10-10-10-10-10---9-9-------------
E --5-5-5-5-5----8--8--8--8--8----7-7-------------
 
                    A
                        Alguna vez....       
 
e --------------------------------         
B -------------8------------7-----
G -----------9---9--------8---8—--  X 2
D --------10------------9---------
A -----10-------------9-----------
E --------------------------------
 
 
C          B
Se fijaron en tu ropa,
A            F#      
en tu forma de vestir
C             B
Y no vieron tu interior,
A          F#   
no se dan cuenta
C              B
Lo que vales en verdad,
A           F#
y hablaron, y hablaron,
B
Y hablaron
 
 
A  C     B      A   C    B
Gente hipócrita te critico, 
A  C   B A      C      B
Lanzando Flores con veneno
A    C   B
eh, eh, eh
A  C     B      A   C    B
Gente estúpida, te criticó
A  C   B A      C     B
Tachando lo que era bueno
A   C   B
Eh, eh, eh
 

Lo demás se va igual
____________________________________________

Alfredo Asensio Figueroa
A.A.F.enlared
www.geocities.com/aafenlared
Esta dirección de correo electrónico está siendo protegida contra los robots de spam. Necesita tener JavaScript habilitado para poder verlo.