Bohemia Suburbana - Siento que me voy



*************************************************
* Bohemia Suburbana                             *
* Siento que me voy                             *
* www.RockChapin.ORG                            * 
*************************************************

Intro
e|------------------------------------------------------------------------------------------------------|
B|-----------------6--6--6--8--5-------------------------------8--6-5H6p5-------------------------------|
G|---7--9---------------------------7--5---------7--9-------------------------7--5-5/7------------------|
D|----------5--7---------------------------5/7----------5--7--------------------------------------------|
A|------------------------------------------------------------------------------------------------------|
E|------------------------------------------------------------------------------------------------------|

  F? (No sé que fa es pero va así):
e|---0---|
B|---1---|
G|---2---|
D|---3---|
A|---0---|
E|---0---|

e|---------------------------------------------------------------------------------------7--8--7--5--7|
B|-----------------------------------------------------------------------5--6--8--10------------------|
G|----9--9--9--7--7--7--9--9--9--7--7--7--5--5--5--4--4--4--7-----------------------------------------|
D|----------------------------------------------------------------------------------------------------|
A|----------------------------------------------------------------------------------------------------|
E|----------------------------------------------------------------------------------------------------|

e|---15--17-------------12--12--12--10--10--10--8--8--8--7-7h8p7--5--3--3--5--7--8--7--5--7--5-----------------------------------|
B|-------------15--17---------------------------------------------------------------------------------------------3--5-----------|
G|-------------------------------------------------------------------------------------------------------------------------2--4--|
D|-------------------------------------------------------------------------------------------------------------------------------|
A|-------------------------------------------------------------------------------------------------------------------------------|
E|-------------------------------------------------------------------------------------------------------------------------------|

e|-----------------------------------------------------------------------------------------------------|
B|--12--12--12--12--12--12--12--12--13--13--13--13--13--13--13--13--12--12--12--12--12--12--12--12--13-|
G|-----------------------------------------------------------------------------------------------------|
D|-----------------------------------------------------------------------------------------------------|
A|-----------------------------------------------------------------------------------------------------|
E|-----------------------------------------------------------------------------------------------------|

e|---------------15-------------15--------|
B|----12--13--------13--12--------12--13--|
G|----------------------------------------| SE REPITE ESTO 8 VECES
D|----------------------------------------|
A|----------------------------------------|
E|----------------------------------------|




Antes de empezar a cantar
Fmaj C
Fmaj C

Am Em Has visto alguna vez
Am Em como muere un pez
Gm Dm atrapado en soledad
F C   un engaño fue su final

Fmaj C
Fmaj C

Am Em Alguna vez
Am Em te has visto caer
Gm Dm como un árbol débil
F C   que el suelo fue a lamer

Fmaj C
Fmaj C

G   Ahh
F C Siento que me voy

e|--13--13--13--12--12--12-|

G Ahh
F C Siento que me voy

Solo
e|--------------------------------------------------------------------------------------------
B|-----------------------------------12--13--12-----------------12--13--12--------------------
G|-------------------------12--14-----------------14--12--14-----------------14--12--14-------
D|-----------12--14--15-----------------------------------------------------------------------
A|--12--14------------------------------------------------------------------------------------
E|--------------------------------------------------------------------------------------------

-----------------------------------------------------------------------------------------------
--12--13--12-------12--13--12--13--12--13/15--15--15--13--12--13--12---------------------------
----------------12---------------------------------------------------------------14------------
-----------------------------------------------------------------------------------------------
-----------------------------------------------------------------------------------------------
-----------------------------------------------------------------------------------------------


---------------15-------------15----------------------15------------15--------------
----12--13--------13--12--------12--13----12--13-------13--12-------12--13----------
------------------------------------------------------------------------------------
------------------------------------------------------------------------------------
------------------------------------------------------------------------------------
------------------------------------------------------------------------------------

---------------15---------------------------------------------------------------------------
----12--13--------12--13--12--13--17--17--17--15--13--12--13--12----------------------------
---------------------------------------------------------------------------14--12--14-------
--------------------------------------------------------------------------------------------
--------------------------------------------------------------------------------------------
--------------------------------------------------------------------------------------------

----------------------------------------------------------------------------------------|
--12--13--12---------------------12--13--12----------------12--13--12-------------------|
----------------14--14--12--14----------------14--12--14--------------------------------|
----------------------------------------------------------------------------------------|
----------------------------------------------------------------------------------------|
----------------------------------------------------------------------------------------|


Mientras canta: Dime tu si alguna vez sientes que la tierra está al 
revez,
que la copa esta vacía temes y temes que se pueda romper.
e|---------------15-------------15-------------------------|
B|----12--13--------13--12--------12--13-------------------|
G|---------------------------------------------------------| SE REPITE 
ESTO 
8 VECES
D|---------------------------------------------------------|
A|---------------------------------------------------------|
E|---------------------------------------------------------|

Am Em Asi me siento hoy
Gm Dm Hoy siento que me voy, siento que me voy
F C   Ahh ahhh

Fmaj C Ole ole oleo ole ole oleo
Fmaj C ahh ahh

G Ahh
F C siento que me voy

e|--13--13--13--12--12--12-|
==========================================================================
Tabbed by Viuda negra Esta dirección de correo electrónico está siendo protegida contra los robots de spam. Necesita tener JavaScript habilitado para poder verlo.