Bohemia Suburbana - Los sueños de Tansu



*************************************************
* Bohemia Suburbana                             *
* Los sueños de Tansu                           *
* www.RockChapin.ORG                            * 
*************************************************
 


Acordes:
    E A D  G  B  E
 
D   0 0 0  2  3  2  
G   3 5 5  4  3  3  
F#  2 4 4  3  2  2  
Am  0 0 2  2  1  0  
C   0 3 2  0  1  0  
F   8 8 10 10 10 8  
G   3 2 0  0  3  3  
 
 
E|-----------------------------------------------------3p2h3p2h3p2----------|
B|-------------------0-1-3-1-0-1-0h1h0h-0--------------------------3--------|
G|---2---0h2---2---2-----------------------2---0p2---2---------------2------|
D|-0---0-----0---0---------------------------0-----0------------------------|
A|--------------------------------------------------------------------------|
E|--------------------------------------------------------------------------|
 
 
E|-----------------------------------------------------3p2h3p2h3p2----------|
B|-------------------0-1-3-1-0-1-0h1h0h-0--------------------------3--------|
G|---2---0h2---2---2-----------------------2---0h2---2---------------2------|
D|-0---0-----0---0---------------------------0-----0------------------------|
A|--------------------------------------------------------------------------|
E|--------------------------------------------------------------------------|
 
 
E|----5-2-----2h3-2-----2h3p2--------|
B|--------3---------3---------3------|
G|----------2---------2---------2----|  (varias veces)
D|-0---------------------------------|
A|-----------------------------------|
E|-----------------------------------|
 
   D.....(TODO ESTO)
E|-----------------------------------------------------3p2h3p2h3p2----------|
B|-------------------0-1-3-1-0-1-0h1p0h-0--------------------------3--------|
G|---2---0h2---2---2-----------------------2---0h2---2---------------2------|
D|-0---0-----0---0---------------------------0-----0------------------------|
A|--------------------------------------------------------------------------|
E|--------------------------------------------------------------------------|
 
 
E|-----------------------------------------------------3p2h3p2h3p2----------|
B|-------------------0-1-3-1-0-1-0h1p0h-0--------------------------3--------|
G|---2---0h2---2---2-----------------------2---0h2---2---------------2------|
D|-0---0-----0---0---------------------------0-----0------------------------|
A|--------------------------------------------------------------------------|
E|--------------------------------------------------------------------------|
 
 
 
E|-----2-----------0-0----4----------0-0---5h0------------|
B|-------3--------------3---3------------3-----5/7--------|
G|---2-----2------------------2------------------7--------|  
D|-0---------0-0----------------0-0--------------7--------|
A|-----------------------------------------------5--------|
E|-----------------------------------------------5--------|
 
 
 
 
E|-------------------------------------------------------------------|
B|-------------------------------------------------------------------|
G|-2-2-2-2-2-0-0--------------------2-2-2-2-4-2----------------------| (2 veces)  
D|---------------4-4-4-4-4-4--5-4-5-------------5-4-4-4-4-4-4-5-4-5--|
A|-------------------------------------------------------------------|
E|-------------------------------------------------------------------|
 
 
E|---------------------------------------------------------------------|
B|---------------------------------------------------------------------|
G|-2-2-2-2-4-2-4-4/5-4-5-5/7-5-4-5-4\2-2-2-2-0-0-----------------------|
D|-----------------------------------------------4-4-4-4-4-4--5-4-5----| (2 veces)
A|---------------------------------------------------------------------|
E|---------------------------------------------------------------------|
 
 
 D (TODO EL VERSO)
Hey, hey, soledad gracias por venir
 
Me sentía un poco solo gracias por venir
 
Hey, Hey, soledad ya que estas aquí
 
tenía ganas de hablarte voy a hablarte a tí
 
 
G          C    D      
Ella no miraba, pero algo sospechaba
   G          C       D 
me ha dejado solo, me ha dejado solo solo
G C D
ahh...eh...
 
E|-------------------------------------------------------------------------------------------
B|-/5-5-5-5\3-3-3\2-2-2-2/3-3-3-3-3/5-5-5-5\3-3-3\2-2-2-2/3-3-3-3-3/5-5-5-5-3-3-3/5-5-5-5----
G|-------------------------------------------------------------------------------------------  
D|-------------------------------------------------------------------------------------------
A|-------------------------------------------------------------------------------------------
E|-------------------------------------------------------------------------------------------

 
-----3-3-8-------------|
-5-5-------8-----------| 
-----------------------| 
-----------------------|
-----------------------|
-----------------------|

D                            Am     
Ya no habrá más sueños en el parque
      C                       G
Ya no jugaremmos más, a encender el fuego
D                     Am
me ha dejado solo, me ha dejado solo
C     G      A
ahh...ahh...
 
 
Ella no miraba, pero algo sospechaba
me ha dejado solo, me ha dejado solo solo
ouh...ouh...
 
 
solo
 
E|-------3-2---------------------------5-5-7-7/8-8-8-8-8-7-5------7-8-----------7-8---------
B|-----3-----3---3/5-3-1-1-1-1-0-0-0P1-----------------------8-10-----10---8-10-----10------  
G|---2---------2----------------------------------------------------------------------------  
D|-0----------------------------------------------------------------------------------------
A|------------------------------------------------------------------------------------------
E|------------------------------------------------------------------------------------------
 
 
E|------7-8--------------------------------------|
B|-8-10-----10^10^10^10^10^----------------------|  
G|-----------------------------------------------|  
D|-----------------------------------------------|
A|-----------------------------------------------|
E|-----------------------------------------------|
 
 
Ella no miraba, pero algo sospechaba
me ha dejado solo, me ha dejado solo solo
ouh...ouh...eh, eh... ah...ah...
______________________________________________________________-
Alfredo Asensio Figueroa
A.A.F.enlared
www.geocities.com/aafenlared
Esta dirección de correo electrónico está siendo protegida contra los robots de spam. Necesita tener JavaScript habilitado para poder verlo.