Bohemia Suburbana - El jardín



*************************************************
* Bohemia Suburbana                             *
* En el jardín                                  *
* www.RockChapin.ORG                            * 
*************************************************


e|----------------------------------------------------------------|
B|----------------------------------------------------------------|
G|-----9-9-----9-9-----9-9-----9-9-----9---7---7-------7-7-----7-7|
D|-7-7-----7-7-----6-6-----6-6-----0-0---0---0---0-5-5-----5-5----|
A|----------------------------------------------------------------|
E|----------------------------------------------------------------|
Ya han pasado varios años
Tu has crecido
Y yo crecí
Solíamos besarnos escondidos
En el jardín
Nos colgábamos de un árbol
Paso el tiempo y te perdí
Aun recuerdo aquel domingo
Tu te fuiste y yo me fui

A              C#m
Y hoy tan solo me pregunto
         G        D
Que será de ti...
A            C#m
Y hoy camino por las calles
G           D
Buscándote, buscándome
A          C#m
Y tan solo me pregunto
G              D
Que será de ti
A                       C#m
Y hoy te miro estas tan rara
G                   D
No me miras ni a la cara,
A                     C#m
Yo por ti he sembrado un árbol
G                 D
Aqui dentro de mi jardín

SOLO
e|-12-12-12-12-14-14-14-14-15-15-15-15-17-17-17-17-17-
B|----------------------------------------------------
G|----------------------------------------------------
D|----------------------------------------------------
A|----------------------------------------------------
E|----------------------------------------------------

e|-------------------------------------------------------------
B|-15-14-------15-14-------15-14-------------------------------
G|-------15-17-------15-17-------15-14-15-15-15-15-14-12-14-12-
D|-------------------------------------------------------------
A|-------------------------------------------------------------
E|-------------------------------------------------------------

e|----------------------------------14-14-14-14-14-15-15-15-15-
B|-------14-15-14-------14-15-14-14----------------------------
G|-14-16----------14-16----------------------------------------
D|-------------------------------------------------------------
A|-------------------------------------------------------------
E|-------------------------------------------------------------

ESTA PARTE TIENES LA TENÉS QUE ESCUCHAR PORQUE SI NO TE VA A COSTAR
ENTENDERLA, SI TU GUITARRA NO TIENE TANTOS TRASTES NO HAY CLAVO PORQUE
SOLO HACÉ COMO QUE TUVIERA AL FIN Y AL CABO SUENA DE A HUEVO.
e|-17-17-17-17-17-18-19-20-21-22-23-24-25-26-27-28-29-30-31-32-33|
B|---------------------------------------------------------------|
G|---------------------------------------------------------------|
D|---------------------------------------------------------------|
A|-----------------------------------|
E|-----------------------------------|

A          C#m
Pero ahora me pregunto
G
Que será de mi
D
Sin ti...(2)
$$$$$$$$$$$$$$$$$$$$$$$$$$$$$$$$$$$$$$$$$$$$$$$$$$$$$$$$$$$$$$$$$$$$$$$$$$$
TABBED BY VIUDA NEGRA
YA SABEN MUCHÁ CUALQUIER DUDA O COMENTARIO (Esta dirección de correo electrónico está siendo protegida contra los robots de spam. Necesita tener JavaScript habilitado para poder verlo.)
¡¡¡¡¡¡¡¡¡PIDANME TABS MUCHÁ VIVA LA GARRA CHAPINA!!!!!!!!!!!!!