Bohemia Suburbana - Azul (bajo)



*************************************************
* Bohemia Suburbana                             *
* Azul (bajo)                                   *
* www.RockChapin.ORG                            * 
*************************************************


Así va el bajo de esta canción...
 
G|----14----14---------------------------------------|
D|--0-----0--------14----14--------------------------|
A|---------------0-----0--------14----14-----0----0--|
E|----------------------------0-----0------3----3----|
 
De pronto estoy tirado, en frente de este lago
y lejos, estoy lejos en la montaña azul
en la montaña azul
 
G|--------------------------------------|
D|--------------------------------------|
A|-55555555----------77777777-----------|
E|----------55555555----------33333333--|
 
y aunque sople el viento nadie escucha mis lamentos
y siento enloquecer, sin querer
vomito las palabras como un perro cuando ladra hasta 
el amanecer, ehh, ehh.
G|---------------------------------------------------|
D|---------------------------------------------------|
A|-55555555----------77777777-5/10 1010101010101010--|
E|----------55555555---------------------------------|
 
aha,.......................... huuuu..................
aha........................... huuuuu.................
 
Y Así se va toda la canción........

la parte del coro no estoy muy seguro de si es así..
pero la parte de los versos si es igual a como
la toca el Pioly.. 
ojala que les guste, buena onda....
Saludos a toda la mara que me conoce, orale........
_______________________________________________
Tableada por Edwin Navarro.
Dudas Comentarios a Esta dirección de correo electrónico está siendo protegida contra los robots de spam. Necesita tener JavaScript habilitado para poder verlo.