Viernes Verde - Siento que no siento 2



*************************************************
* Viernes Verde                                 *
* Siento que no siento                          *
* www.RockChapin.ORG                            * 
*************************************************
 
Aqui les va esta cancion de un grupo chapin muy bueno...
 
Intro y Versos...
Primera Guitarra

  E
e|---------------------I---------------------I
B|---------------------I---------------------I
G|---------------------I---------------------I
D|-6-6-9-6-7-6-6-6-6---I-6-6-9-6-7-6-6-6-6---I
A|-7-7-7-7-7-7-7-7-7---I-7-7-7-7-7-7-7-7-7---I
E|---------------------I---------------------I
 
Segunda Guitarra (Toque ligero y rapido)
e|---------------------I---------------------I
B|---------------------I---------------------I  
G|-9-9-9---------------I-9-9-9---------------I
D|-6-6-6---------------I-6-6-6---------------I
A|-7-7-7---------------I-7-7-7---------------I
E|---------------------I---------------------I
 
Primera Guitarra
  A
e|---------------------I---------------------I
B|---------------------I---------------------I  
G|-9-9-9-9-8-8h9-9-9---I-9-9-9-9-8-8h9-9-9---I
D|-7-7-7-7-7-7-7-7-7---I-7-7-7-7-7-7-7-7-7---I
A|---------------------I---------------------I
E|---------------------I---------------------I
 
Segunda Guitarra (Toque ligero y rapido)
e|---------------------I---------------------I
B|-7-7-7---------------I-7-7-7---------------I  
G|-6-6-6---------------I-6-6-6---------------I
D|-7-7-7---------------I-7-7-7---------------I
A|---------------------I---------------------I
E|---------------------I---------------------I

CORO 1
Siento que..
      Cm#
e|-x-x-4~--x-x-4~--x-x-4~--x-x-4~-I
B|-x-x-5~--x-x-5~--x-x-5~--x-x-5~-I
G|-x-x-6~--x-x-6~--x-x-6~--x-x-6~-I
D|-x-x-6~--x-x-6~--x-x-6~--x-x-6~-I  Primera Guitarra..
A|-x-x-4~--x-x-4~--x-x-4~--x-x-4~-I
E|-x-x-4~--x-x-4~--x-x-4~--x-x-4~-I
 
D|-12~/15~~~~~~----15~/17~~~~~----I  Segunda Guitarra...

No siento
      B
e|-x-x-7~--x-x-7~--x-x-7~--x-x-7~-I
B|-x-x-7~--x-x-7~--x-x-7~--x-x-7~-I
G|-x-x-8~--x-x-8~--x-x-8~--x-x-8~-I
D|-x-x-9~--x-x-9~--x-x-9~--x-x-9~-I  Primera Guitarra
A|-x-x-9~--x-x-9~--x-x-9~--x-x-9~-I
E|-x-x-7~--x-x-7~--x-x-7~--x-x-7~-I
 
D|-17~/19~~~~~------20~-19~-17~-15~\--I  Segunda Guitarra..(Primera Vez)
 
D|-17~/19~~~~~------19~/20~~~~~~~-----I  Segunda Guitarra..(segunda vez)

No queiro sentirme asi..
   A
e|--5~~~~~------5~~~~~---I
B|--5~~~~~------5~~~~~---I
G|--6~~~~~------6~~~~~---I
D|--7~~~~~------7~~~~~---I  Primera Guitarra
A|--7~~~~~------7~~~~~---I
E|--5~~~~~------5~~~~~---I
 
Intro.
Verso..

Coro 1

Coro 2
 
Estoy vivo
   E
e|--0~~~--I
B|--0~~~--I
G|--1~~~--I
D|--2~~~--I  
A|--2~~~--I
E|--0~~~--I
 
Sigo vivo
   B
e|--2~~~--I
B|--3~~~--I
G|--3~~~--I
D|--3~~~--I  
A|--2~~~--I
E|--2~~~--I

Y no tnego nada
   
   Cm#
e|--4~~~--I
B|--4~~~--I
G|--6~~~--I
D|--6~~~--I 
A|--4~~~--I
E|--4~~~--I
 
No me queda nada
   D
e|--5~~~--I
B|--5~~~--I
G|--7~~~--I
D|--7~~~--I 
A|--5~~~--I
E|--5~~~--I
(Se Repite..)

(con el mismo Riff del COro)..
Estoy vivo, sigo vivo y no tengo nada, no me queda nada...
 
Aveces a final del coro hace esto en lugar de 
quedarse en A....
e|--------------------------------I
B|--------------------------------I
G|--------------------------------I
D|--9-9-9/11-11-11/13-13-13-13~~~-I
A|--7-7-7/9--9---9/11-11-11-11~~~-I
E|--------------------------------I
Creo que es al final de la cancion.....

Nota:
cuando ya esta terminando la cancion se hace
lo mismo que en el intro solo se
queda en MI, es decir que ya no baja a LA..
 
y termina en
   E
e|---------I
B|---------I
G|---------I
D|--6~~~~--I
A|--7~~~~--I
E|---------I
 

Les debo la letra por que, que hueva estarla 
poniendo,. pero se consigue.....
Esta Facil, solo es de escuchar bien la rola
para sacarla, agarrenle ritmo. y agarrenle la onda
al orden por que no tengo la rola a la mano..
Buena ONDa que les guste el rock de Guatemla...
pongale GAnas y eso es todo por hoy....
Saludos al Primo que me ayudo con la tabuleada...
Rafa por si miras esto....Buena Onda!!!!!
Ssaludos a la vieja y al Cuevas tambien....
Pongan mas rolas.............
Dudas o Comentarios me pueden escribir a:
Esta dirección de correo electrónico está siendo protegida contra los robots de spam. Necesita tener JavaScript habilitado para poder verlo.