Viernes Verde - Sed



*************************************************
* Viernes Verde                                 *
* Sed                                           *
* www.RockChapin.ORG                            * 
*************************************************


INTRO

E |-------------------------------|
B |--2---2---2---2---2h3p2--------|
G |---2---2---2---2--------2h4p2--|
D |-------------------------------|
A |-------------------------------|
E |-------------------------------|

Se toca una vez con la guitarra limpia, y tres veces
con distorción. Pero la ultima vez se termina así..

E |------------------|
B |--2---2---2---2/--|
G |---2---2---2------|
D |------------------|
A |------------------|
E |------------------|

VERSO
A5
Tanta luces a la ciudad
Sin saber cual se apagará
    B5         D5
Que todo se quemara
A5
Podrás decir que estuviste ahí
Quien controla el destino
Que hizo desaparecer
B5   D5    Riff 1
Uhhh ohhhh ohhh

CORO
2 veces

F5             G5
Donde quedas tu
          C5      A5       G5
Cuando el agua apagado el fuego
F5              G5
No mueras para mi
       C5   A5      G5
No lo volveras a hacer de nuevo

A5   G5
Uhhh ohh

Riff 1

A5
Demo embriagarme asi
Y no dudar jamás de ti
B5           D5
Tengo que mojar mis labios
A5
O voy a morir de sed
Y cuando se oculte el sol
Giro de ti y sera con el
B5   D5    Riff 2
Uhhh ohhhh ohhh

CORO
4 veces

A5   G5
uhhh ohh

Solo

Riff 1

E |--------------------------|
B |--------------------------|
G |--------------------------|
D |--7-5-7--x-x-x-x-x-x-x-x--|
A |--7-5-7--x-x-x-x-x-x-x-x--|
E |--5-3-5--x-x-x-x-x-x-x-x--|

Riff 2

E |-----------|
B |-----------|
G |-----------|
D |--9--7--5--|
A |--9--7--5--|
E |--7--5--3--|

~~~~~~~~~~~~~~~~~~~~~~~~~~~~~~~~~~~~~~~~~~~~~~~~~~~~~
Que onda mi nombre es Victor, cualquier duda, 
comentario o intercambio de partituras sobre todo de 
rock guatemalteco y de Viernes Verde comunicarse a 
Esta dirección de correo electrónico está siendo protegida contra los robots de spam. Necesita tener JavaScript habilitado para poder verlo.