Viernes Verde - Requiem en E (bajo)



*************************************************
* Viernes Verde                                 *
* Requiem en E (bajo)                           *
* www.RockChapin.ORG                            * 
*************************************************
 

INTRO:
G|-------------------------------------------
D|-------------------------------------------
A|-------------------------------------------
E|-3/12\3-0-0-0-3-0-0-3-0-0-3-0-0-3-0-0-3----
 
G|------------------------------------
D|------------------------------------ (2 veces más)
A|------------------------------------
E|-0-0-0-3-0-0-3-0-0-3-0-0-3-0-0-3----
 
(Aquí es la segunda parte del Intro) 
(También se utiliza en los versos)
 
G|-----------------------------------
D|------------8-10-10h8—-10h8--------
A|---------10----------10----10------
E|-3/8-8-8---------------------------
 
G|-------------------------------
D|---------8-10-10/12-10-8-------
A|------10-----------------------
E|--8-8--------------------------
 
G|-----------------------------------
D|--------8-10-10h8—-10h8--------
A|-----10----------10----10------
E|-8-8---------------------------
 
G|-----------------------
D|---------10------12----
A|-----------------------
E|-8-8-8-8----8/10-------
      
      Me cuesta tan...
G|-----------------------------------
D|------------8-10-10h8—-10h8--------
A|---------10----------10----10------
E|-3/8-8-8---------------------------
 
   ...to creer
G|-------------------------------
D|---------8-10-10/12-10-8-------
A|------10-----------------------
E|--8-8--------------------------
 
    Que en mi tierra sean así 
G|-----------------------------------
D|--------8-10-10h8—-10h8--------
A|-----10----------10----10------
E|-8-8---------------------------
 
   que no sepan lo que hay aquí
G|-----------------------
D|---------10------12----
A|-----------------------
E|-8-8-8-8----8/10-------
 
(el siguiente verso es igual)
Y no quiero ni creer
Que un chapín me a traicionar
Sólo porque no cree en mí
 
Solo 1.
 
G|-----------------------
D|----------------------- (varias veces)
A|-----------------------
E|-6-6-6-6-6-6-8-8-8-8-8-
 
Verso:
Es momento de gritar
Que sepan que estamos aquí
Y que nadie nos va a parar
Verso:
Y no basta con solo hablar
Orgulloso de ser de aquí
Y aquí es donde quiero morir
 
(Aquí se acompaña como en el solo 1)
Mira, escucha, siente, aún hay más
 
(El coro se toca como en la primera parte
del Intro)
Soy chapín de sangre
Vas a respetarme
Si no crees en mí
Pelame la verga
 
Soy chapín de sangre
Vas a respetarme
Si no crees en mí
Come mucha mierda
 
(Aquí se toca como en la segunda parte del Intro)
 
Verso:
Es momento de empezar
Esta guerra va a comenzar
Y no tiene que terminar
Verso:
Y no quiero sospechar
Que un chapín me va a traicionar
Solo porque no cree en mí
 
Mira, escucha, siente, aún hay más
 
Coro:

Soy chapín de sangre
Vas a respetarme
Si no crees en mí
Pelame la verga
 
Soy chapín de sangre
Vas a respetarme
Si no crees en mí
Come mucha mierda
 
Solo2:
 
G|-------------------
D|--------8-10------- (varias veces)
A|-----10------------
E|-8-8---------8-8---
 
 
   No te quiero...
G|-----------------------------------
D|---------8-10-10h8—-10h8--------
A|------10----------10----10------
E|--8-8---------------------------
 
    ...oír decir...
G|-------------------------------
D|---------8-10-10/12-10-8-------
A|------10-----------------------
E|--8-8--------------------------
 
   ...que afuera todo es mejor...
G|-----------------------------------
D|--------8-10-10h8—-10h8--------
A|-----10----------10----10------
E|-8-8---------------------------
 
   ...que no se puede comparar.
G|-----------------------
D|---------10------12----
A|-----------------------
E|-8-8-8-8----8/10-------
 
   Es momento... 
G|-----------------------------------
D|---------8-10-10h8—-10h8--------
A|------10----------10----10------
E|--8-8---------------------------
 
    ...de sentir...
G|-------------------------------
D|---------8-10-10/12-10-8-------
A|------10-----------------------
E|--8-8--------------------------
   ...el orgullo de ser de aquí...
 
G|-----------------------------------
D|--------8-10-10h8—-10h8--------
A|-----10----------10----10------
E|-8-8---------------------------
   ...que nadie te puede quitar.
 
G|----------------------------
D|-8/12-12-8-8-6-6------------
A|-----------------10-10------
E|-----------------------12\3-
 
Coro:
Soy chapín de sangre
Vas a respetarme
Si no crees en mí
Pelame la verga
 
Soy chapín de sangre
Vas a respetarme
Si no crees en mí
Come mucha mierda
 
G|-------------------
D|-------------------
A|------------------- (varias veces)
E|-0-0-0-0-3-3-3-3---
 
Soy chapín de sangre (varias veces)
 
(aquí termina como en el Intro)
 
Soy chapín de sangre.
E|-0-0-0-3-0-0-3-0-0-3-0-0-3-0-0-3----
 
Alfredo Asensio Figueroa
A.A.F.enlared
http://www.geocities.com/aafenlared
Esta dirección de correo electrónico está siendo protegida contra los robots de spam. Necesita tener JavaScript habilitado para poder verlo.