Viernes Verde - Rabia



*************************************************
* Viernes Verde                                 *
* Rabia                                         *
* www.RockChapin.ORG                            * 
*************************************************


Intro:


D|------------------------------------------------|
A|------------------------------------------------| 3 Veces
E|-------12-x-12-x-12-x-12-12-x-x-12-x-12-x-12----|


E|----------------------------|
B|---5--6/8----6-5-6-5-6-5----|
G|---x--x------x-x-x-x-x-x----|
D|---2--3/5----3-2-3-2-3-2----|   3 Veces
A|---0--0-(0)--0-0-0-0-0-0----|
E|----------------------------|

E|--------------------------------------------------|
B|---5--6/8----6-5-6-5-6-8-10--12--14---------------|
G|---x--x------x-x-x-x-x-x--x---x---x---------------|
D|---2--3/5----3-2-3-2-3-5--7---9--12---------------|
A|---0--0-(0)--0-0-0-0-0-0--0---0---0---------------|
E|--------------------------------------------------|

I-Despues esto varias veces:

D|------------------------------------------------------|
A|------------------------------------------------------|
E|---12-x-12-x-12-x-12-12-x-x-12-x-12-x-12-x-13-15-13---|

                         |   3 veces esto   |

E|---------------------------------------------------------------|
B|------------------------5-6/8--6-5-6-5-6-5---------------------|
G|------------------------x-x-x--x-x-x-x-x-x---------------------|
D|---3-3-3-3-3-3-3--------2-3-5--3-2-3-2-3-2---------------------|
A|---3-3-3-3-3-3-3--------0-0-0--0-0-0-0-0-0---------------------|
E|---1-1-1-1-1-1-1-----------------------------------------------|

E|---------------------------|
B|----------------------5----|
G|--5-5-5-4-4-4-5-(5)---x----|
D|--5-5-5-4-4-4-5-(5)---2----|
A|--3-3-3-2-2-2-3-(3)---0----|
E|---------------------------|

Sigue otra vez II

Solo:

E|-----------------------------------------------------------------------|
B|---5--6/8----6-5-6-5-6-8-10--12--14--14--14--13--13-12--13-13-12-12-10-|
G|---x--x------x-x-x-x-x-x--x---x---x---x---x---x---x--x---x--x--x--x--x-|
D|---2--3/5----3-2-3-2-3-5--7---9--12--12--12--11--11--9--11--11-9--9--7-|
A|---0--0-(0)--0-0-0-0-0-0--0---0---0---0---0---0---0--0---0--0--0--0--0-|
E|-----------------------------------------------------------------------|

E|-----------------------------------------------------------------------|
B|--14--14--13--13-12--13-13-12-12-10---14-14-13-13-13--13-13-12-13--10--|
G|---x---x---x---x--x---x--x--x--x--x----x--x--x--x--x---x--x--x--x---x--|
D|--12--12--11--11--9--11--11-9--9--7---12-12-11-11-11--11-11--9-11---7--|
A|---0---0---0---0--0---0---0-0--0--0----0--0--0--0--0---0--0--0--0---0--|
E|-----------------------------------------------------------------------|

E|-----------------------------------|
B|--14-14-13-13-13--13-13-12-13--10--|
G|---x--x--x--x--x---x--x--x--x---x--|
D|--12-12-11-11-11--11-11--9-11---7--|    2 veces mas
A|---0--0--0--0--0---0--0--0--0---0--|
E|-----------------------------------|

E|---------------------------------------------|
B|--14-14-13-13-13--13-13-12-13--10--8--6--5---|
G|---x--x--x--x--x---x--x--x--x---x--x--x--x---|
D|--12-12-11-11-11--11-11--9-11---7--5--3--2---|
A|---0--0--0--0--0---0--0--0--0---0--0--0--0---|
E|---------------------------------------------|