Viernes Verde - Pedro Pan



*************************************************
* Viernes Verde                                 *
* Pedro Pan                                     *
* www.RockChapin.ORG                            * 
*************************************************
 

E||-----------------3------------
B||-1p3-3-1-1p3-3p5---5-3-3p5----
G||------------------------------
D||------------------------------
A||------------------------------
E||------------------------------
 
E||-----------------3p5-3------------
B||-1-1-1p3-3-1-1p3-------5-3-3p5----
G||----------------------------------  (Repetir la primera)
D||----------------------------------
A||----------------------------------
E||----------------------------------
 
(última)
E||----------------------3-3p5-----------
B||-1-1-1p3-3-1-1p3--3p5----------------
G||----------------------------------
D||----------------------------------
A||----------------------------------
E||----------------------------------
 
  
Do  Sol Do      Sol      
Mírate  como paraste aquí
Do  Sol Do           Sol
Fíjate  en dónde estabas antes
 
Lam         Sol        Fa
Sigue admirando el cielo
La         Sol       Fa
y que te atrapen las nubes
 
E||-----------------------------3p5-3-----------3p5-3------
B||-2p4-4-2-2p4--2-2p4-4-2-2p4---------5-3-3p5--------5-3--
G||--------------------------------------------------------
D||--------------------------------------------------------
A||--------------------------------------------------------
E||--------------------------------------------------------
 
E||----------------3p5-3----------|--------------
B||-2-2p4-4-2-2p4---------5-3-3p5-|-3h1----------
G||-------------------------------|-----2--------  (esta última parte
D||-------------------------------|--------------   varias veces)
A||-------------------------------|--------------
E||-------------------------------|--------------
 
Fa         Sol    Lam   
Se te olvidó volar
Fa         Sol    Lam
Se te olvidó soñar
Fa        Sol      Lam
Qué te pasó Pedro Pan
Fa        Sol       Lam
Quién te mató Pedro Pan
 
(Lo demás es igual)
Mírate como sufrís ahora
Fíjate como jugabas antes
 
 
Lam      Sol           Fa 
Sigue viajando entre estrellas
Lam       Sol        Fa  Do Sol Lam# Re
Aunque tengas que crecer
 
 
Se te olvidó vivír
Se te olvidó reír
Qué te pasó Pedro Pan
Quién te mató Pedro Pan
 
Solo:
 
E||------------------------------------------
B||---------8-8/10-8---------8-10/11-10-8----
G||-----7-9----------9-7-7-9-9------------9--
D||-7-9--------------------------------------
A||------------------------------------------
E||------------------------------------------
 
E||--------------------------------------------
B||-------17----15-----------------------------
G||-14-16----16-------------------------10-12--
D||----------------17-15-17-17-17-16-16-12-14--
A||--------------------------------------------
E||--------------------------------------------
 
E||-----------------3p5-3--------
B||-1-1-1p3-3-1-1p3--------5-----
G||------------------------------
D||------------------------------
A||------------------------------
E||------------------------------
 
E||-----------------3p5-3------------
B||-1-1-1p3-3-1-1p3-------5-3-3p5----
G||----------------------------------
D||----------------------------------
A||----------------------------------
E||----------------------------------
 
E||-----------------3-----
B||-1p3-3-1-1p3-3p5---5---
G||-----------------------
D||-----------------------
A||-----------------------
E||-----------------------
 
E||--------------------
B||-1p3-3-1-1p3/5/7----
G||--------------------
D||--------------------
A||--------------------
E||--------------------
 
E||--------------------------------------------
B||--------------------------------------------
G||-/12-9-------------14-12-/12-9--------------
D||-------10-9-9p10-9-------------10-9-10p9-9--
A||--------------------------------------------
E||--------------------------------------------
 
E||--------------------------------------------------------------
B||--------------------------------------------------------------
G||-/12-9-------------/14-12-12p14-12----12p14-12----12p14-12----
D||-------10-9-9p10-9-----------------14----------14-------------
A||--------------------------------------------------------------
E||--------------------------------------------------------------
 

E||-----------------------------------------------------
B||----15----------------15-12-12-12-12\10-10-10--------
G||-14----12-12p13-12p15-------------------------12-12--
D||-----------------------------------------------------
A||-----------------------------------------------------
E||-----------------------------------------------------

E||----------------------
B||-------10/12-/17------
G||-12/14----------------
D||----------------------
A||----------------------
E||----------------------
 

(Lo demás es igual)
 
Se te olvido seguir
Se te olvidó llorar
Qué te pasó Pedro Pan
Quién te mató Pedro Pan
Ya no eres niño...Pedro Pan

_________________________________________________________________
Alfredo Asensio Figueroa
A.A.F.enlared
www.geocities.com/aafenlared
Esta dirección de correo electrónico está siendo protegida contra los robots de spam. Necesita tener JavaScript habilitado para poder verlo.