Viernes Verde - Pantera Onca



*************************************************
* Viernes Verde                                 *
* Pantera Onca                                  *
* www.RockChapin.ORG                            * 
*************************************************


Intro

D|-----9--9--9--------|
A|-----7--7--7h8p7----|     3 Veces
E|-----0--0--0--------|


D|-----5--7-----------|
A|-----3--5-----------|
E|-----0--0-----------|

Otra vez lo mismo

D|-----0h2--0h2--0h2--0h2--0----|
A|---------------------------2--|    4 Veces
E|------------------------------|


Guitarra:

Se va todo con Em

Al mismo tiempo el Bajo:



D|------------------------------|
A|------------2----------2------|
E|---0----0-3----0-0-0-3--------|

Después:

G|---------------2h3p2p0--------|
D|----0---2--3------------------|
A|------------------------------|
E|------------------------------|

Sigue con Em

Solo:

2 Veces

E|------------------------------------------------------------------------|
B|-12h13--12--13--13/15--13--15--15/17--15--17--17/18--17--15/13--13--15--|
G|------------------------------------------------------------------------|
D|------------------------------------------------------------------------|
E|------------------------------------------------------------------------|
B|-13/12--12--13--12/10--10-----------------------------------------------|
G|---------------------------12-------------------------------------------|
D|------------------------------------------------------------------------|

Después:

E|------------------------------------------------------------------------|
B|------------------------------------------------------------------------|
G|----------12--14--14/16-----17-16-16-------17-16--14--12--14---9--------|
D|------14----------------------------------------------------------------|

E|------------------------------------------------------------------------|
B|---------12-------12--12------10b---------------------------------------|
G|---9-----12---9---12--12------------------------------------------------|
D|------------------------------------------------------------------------|

Al final

Em  G Em  Gm

TABBED BY VIUDA NEGRA
Esta dirección de correo electrónico está siendo protegida contra los robots de spam. Necesita tener JavaScript habilitado para poder verlo.