Viernes Verde - Los niños de las flores



*************************************************
* Viernes Verde                                 *
* Los niños de las flores                       *
* www.RockChapin.ORG                            * 
*************************************************


Empieza con un slide para abajo, aunque no estoy muy seguro que sea este.....

e-----------
b--8\\\\\0--
g--9\\\\\0--
D-----------
A-----------
E-----------

Y sigue con la parte del verso
                        *
e-----------------------------       e-----------------------------
b-----------------------------       b-----------------------------
g--2--2--0h2--2-2------0h2----   o   g-----------------------------
D--2--2--0h2--2-2--0h2--------       D--7--7--5h7--7-7------5h7----
A--0--0--0--------------------       A--7--7--5h7--7-7--5h7--------
E-----------------------------       E--5--5--5--------------------

*Antes de empezar a cantar se queda en esta nota al final,

Cada cuatro hace esto

e------------------------------------------------
b------------------------------------------------
g--2--2--0h2--2-2------0--5--5-5-5--7--7-7--5----
D--2--2--0h2--2-2--0h2----5--5-5-5--7--7-7--5-5--
A--0--0--0----------------3--3-3-3--5--5-5--3-5--
E---------------------------------------------3--

Una o dos veces hace esto durante la canción
y para serles sincero ni yo puedo tocarlo pero asi es...

e--------------------------------------------------------
b--------------------------------------------------------
g--5-5-7-5------5-5-7-5------5-5-7-5------5-5-7-5--------
D--5-5-7-5-7-5--5-5-7-5-7-5--5-5-7-5-7-5--5-5-7-5-7-5----
A--3-3-5-3-7-5--3-3-5-3-7-5--3-3-5-3-7-5--3-3-5-3-7-5----
E----------5-3----------5-3----------5-3----------5-3----

Solo

una guitarra hace esto

e-------------------------------------------------------------------------
b-------------------------------------------------------------------------
g--2-2--2-2----2-2--2-2----2-2--2-2----2-2--2-2----2-2--2-2----2-2--2-2---
D--2-2--2-2----2-2--2-2----2-2--2-2----2-2--2-2----2-2--2-2----2-2--2-2---
A--0-0--0-0----0-0--0-0----0-0--0-0----0-0--0-0----0-0--0-0----0-0--0-0---
E-------------------------------------------------------------------------

Y la otra hace

e------------------------------------------------------10b-10b-10b10--10b-10b-10b10------7-------
b--7b-7b-7b7---------------5-7-7h8-7-5-5-5h7-----------------------------------------7h9---7-7h9-
g--7b-7b-7b7----------------------------------5\7-5----------------------------------------------
D--------------5h7-7-5-5h7--------------------------7--------------------------------------------
A------------------------------------------------------------------------------------------------
E------------------------------------------------------------------------------------------------
*****los bends son full

e------7---------|---------------------------------------
b--7h9---7-7h9---|---------------------------------------      x 5
g----------------|--------------------------------------- 


OUTRO:

D----------------|--------------------------------------- 
A----------------|--0-3-0-0-5-5-0-0-7-7-0-0-5-5-0-3-0--
E----------------|---------------------------------------

TABBED BY Luispedro Esta dirección de correo electrónico está siendo protegida contra los robots de spam. Necesita tener JavaScript habilitado para poder verlo.