Viernes Verde - La Utopia del niño de bronce



*************************************************
* Viernes Verde                                 *
* La Utopia del niño de bronce                  *
* www.RockChapin.ORG                            * 
*************************************************


e|--------------|
B|--------------|
G|---------5nh--|
D|--------------|
A|--------------|
E|-2-2h3-2------|

GUITARRA 1
e|-------------|
B|-------------|
G|-----5-----3-|
D|---7-----5---|
A|-5-----3-----|
E|-------------|

GUITARRA 2
e|-----------------------------------------------|
B|-----------------------------------------------|
G|-----------------------------------------------|
D|-----------------------------------------------|
A|5-5-5-5-5-5-5-5-5-5-5-5------------------------|
E|------------------------7-7-7-7-7-7-5-5-5-5-5-5|
Cuanto afán siente la gloria
Enterrada en un costal,
Igual fue para el sol,
Que pronto le oscureció.

e|-------------------------------------|
B|-------------------------------------|
G|-7-7-7-7-11-11-7-7-7-7-11-4-4-4-4-7--|
D|-7-7-7-7-11-11-7-7-7-7-11-4-4-4-4-7-7|
A|-5-5-5-5- 9- 9-5-5-5-5- 9-2-2-2-2-5-7|
E|------------------------------------5|

GUITARRA 1
e|-------------|
B|-------------|
G|-----5-----3-|
D|---7-----5---|
A|-5-----3-----|
E|-------------|

GUITARRA 2
e|-----------------------------------------------|
B|-----------------------------------------------|
G|-----------------------------------------------|
D|-----------------------------------------------|
A|5-5-5-5-5-5-5-5-5-5-5-5------------------------|
E|------------------------7-7-7-7-7-7-5-5-5-5-5-5|
Aquella isla que es el alma,
Es imposible penetrar.
También sintió así
El cuerpo que no respondió.

e|-------------------------------------|
B|-------------------------------------|
G|-7-7-7-7-11-11-7-7-7-7-11-4-4-4-4-7--|
D|-7-7-7-7-11-11-7-7-7-7-11-4-4-4-4-7-7|
A|-5-5-5-5- 9- 9-5-5-5-5- 9-2-2-2-2-5-7|
E|------------------------------------5|

e|--------------|
B|--------------|
G|---------5nh--|
D|--------------|
A|--------------|
E|-2-2h3-2------|


Coro
G5       A5        B5
Estirar, alcanzar, estrechar
A5         G5       A5         B5  A5
De cara al parto de un huracán.
G5            F#5        G5
Que destruye, que agota, alborota
A5  G5      F#5
Una ilusión.

e|--------------|
B|--------------|
G|---------5nh--|
D|--------------|
A|--------------|
E|-2-2h3-2------|

GUITARRA 1
e|-------------|
B|-------------|
G|-----5-----3-|
D|---7-----5---|
A|-5-----3-----|
E|-------------|

GUITARRA 2
e|-----------------------------------------------|
B|-----------------------------------------------|
G|-----------------------------------------------|
D|-----------------------------------------------|
A|5-5-5-5-5-5-5-5-5-5-5-5------------------------|
E|------------------------7-7-7-7-7-7-5-5-5-5-5-5|
Cuanta fuerza arrastra el frío
Cuando desboca su caudal,
Igual cayo el dolor al fondo
Y no, nunca aviso.

e|-------------------------------------|
B|-------------------------------------|
G|-7-7-7-7-11-11-7-7-7-7-11-4-4-4-4-7--|
D|-7-7-7-7-11-11-7-7-7-7-11-4-4-4-4-7-7|
A|-5-5-5-5- 9- 9-5-5-5-5- 9-2-2-2-2-5-7|
E|------------------------------------5|

e|--------------|
B|--------------|
G|---------5nh--|
D|--------------|
A|--------------|
E|-2-2h3-2------|

Coro
G5       A5        B5
Estirar, alcanzar, estrechar
A5         G5       A5         B5  A5
De cara al parto de un huracán.
G5            F#5        G5
Que destruye, que agota, alborota
A5  G5      F#5
Una ilusión.

SOLO
e|-----------------------------------
B|--------7-7h8-7---7-7h8-7----------
G|----5-7---------5------------------
D|5-7-----------------------9-7-9-7--
A|-----------------------------------
E|-----------------------------------

e|--------------------------------------
B|--------7-7h8-7---7-7h8-7---7-7h8-7-10
G|----5-7---------5---------------------
D|5-7-----------------------9-----------
A|--------------------------------------
E|--------------------------------------

e|---------------------------------------------------------------------------
B|-8-8-8-7-8/10-10-10-8-10-10/12-12-12-10-12/14-14-14-12-14/15-15-15-14-15/17
G|---------------------------------------------------------------------------
D|---------------------------------------------------------------------------
A|---------------------------------------------------------------------------
E|---------------------------------------------------------------------------

e|---------------------------------------------------------------------17-----17-----|
B|15-14-15-14-12-14-12-10-12-10-8-10-8----12-14-12-14-15-14-15-17-fb17----fb17---fb17|
G|-------------------------------------12--------------------------------------------|
D|-----------------------------------------------------------------------------------|
A|-----------------------------------------------------------------------------------|
E|-----------------------------------------------------------------------------------|

Coro
G5       A5        B5
Estirar, alcanzar, estrechar
A5         G5       A5         B5  A5
De cara al parto de un huracán.
G5            F#5        G5
Que destruye, que agota, alborota
A5  G5      F#5
Una ilusión.

e|--------------|
B|--------------|
G|---------5nh--|
D|--------------|
A|--------------|
E|-2-2h3-2------|



TABBED BY:
VIUDA NEGRA
Esta dirección de correo electrónico está siendo protegida contra los robots de spam. Necesita tener JavaScript habilitado para poder verlo.