Viernes Verde - Invisible



*************************************************
* Viernes Verde                                 *
* Invisible                                     *
* www.RockChapin.ORG                            * 
*************************************************

INTRO 
1era. guitarra con wah/wah. 
E 
|--------------------------------------------------------| 
B 
|--------------------------------------------------------| 
G 
|--------------------------------------------------------| 
D 
|--------------------------------------------------------| 
A 
|-7---7-7---7--7---7--7--7-7---7-7---7--7---7--7--7--7-*-| 
E 
|-0---0-0---0--0---0--0--0-0---0-0---0--0---0--0--0--0-*-| 
pm pm pm pm pm pm pm pm pm pm pm pm 
pm 

* Aquí entra la otra guitarra. 

2da. guitarra con distorción. 
E 
|--------------------------------------------------------| 
B 
|--------------------------------------------------------| 
G 
|--------------------------------------------------------| 
D 
|--------------------------------------------------------| 
A 
|-2---2-2---2--2---2--2--2-2---2-2---2--2---2--2--2--2---| 
E 
|-0---0-0---0--0---0--0--0-0---0-0---0--0---0--0--0--0---| 
pm pm pm pm pm pm pm pm pm pm pm pm 
pm 

VERSO (igual que el intro, con las dos guitarras 
juntas. 

PRE-CORO 
1era. guitarra con distorción y después regresa al 
wah/wah. (2 veces) 
E |--------------------------------------------| 
B |--------------------------------------------| 
G |--------------------------------------------| 
D |-5-5-5--7-7-7-------------------------------| 
A |-3-3-3--5-5-5-----7---7-7---7--7---7--7-----| 
E |------------------0---0-0---0--0---0—-0-----| 
pm pm pm pm pm pm 


2da. guitarra con distorción. (2 veces) 
E |--------------------------------------------| 
B |--------------------------------------------| 
G |--------------------------------------------| 
D |-5-5-5--7-7-7-------------------------------| 
A |-3-3-3--5-5-5-----2---2-2---2--2---2--2-----| 
E |------------------0---0-0---0--0---0—-0-----| 
pm pm pm pm pm pm 

VERSO 
PRE-CORO 

CORO 
Las dos guitarras van igual. 
E |----------------------------------| 
B |----------------------------------| 
G |----------------------------------| 
D |-------5-------5-------5-------5--| 
A |-2-2-2-3-2-2-2-3-2-2-2-3-2-2-2-3--| 
E |-0-0-0---0-0-0---0-0-0---0-0-0----| 

VERSO 
En este verso la primera guitarra cambia. 
De primero entra sola dos veces. 

1era. guitarra con distorción. 
E |-------------------------| 
B |-------------------------| 
G | ------------------------| 
D | ------------------------| 
A |-8p7h8p7--8p7h8p7h8p7----| 
E |-------------------------| 

2da. guitarra con distorción. 
E 
|--------------------------------------------------------| 
B 
|--------------------------------------------------------| 
G 
|--------------------------------------------------------| 
D 
|--------------------------------------------------------| 
A 
|-2---2-2---2--2---2--2--2-2---2-2---2--2---2--2--2--2---| 
E 
|-0---0-0---0--0---0--0--0-0---0-0---0--0---0--0--0--0---| 
pm pm pm pm pm pm pm pm pm pm pm pm 
pm 

PRECORO 
CORO 

OUTRO 
1era guitarra limpia. 
En esta parte te aconsejo que la oigas para sacarle el 
ritmo, yo solo te pongo las notas. 
E |-----------------| 
B |-----------------| 
G |-----------------| 
D |--9---7---5---4--| 
A |--7---5---3---2--| 
E |-----------------| 

Esta guitarra entra después de la la primera guitarra 
lo hace dos veces. 
2da guitarra con distorción. 
E |--------------------------------| 
B |--------------------------------| 
G |--------------------------------| 
D |-9--9-9-9--9-9---9--9-9-9--9-9--| 
A |-7--7h8-7--7-7---7--7h8-7--7-7--| 
E |--------------------------------| 

Esta guitarra entra después de que la segunda guitarra 
lo hace dos veces. 
1era guitarra con distorción. 
E |-----------------------| 
B |-----------------------| 
G |-----------------------| 
D |-9--10-12--14--16--16--| 
A |-7--8--10--12--14--14--| 
E |-----------------------| 

CORO 

FINAL 
La primera guitarra toca lo que se toca en el tercer 
verso. 
4 veces 
E |-------------------------| 
B |-------------------------| 
G | ------------------------| 
D | ------------------------| 
A |-8p7h8p7--8p7h8p7h8p7----| 
E |-------------------------| 

La segunda guitarra toca la parte del coro. 

E |----------------------------------| 
B |----------------------------------| 
G |----------------------------------| 
D |-------5-------5-------5-------5--| 
A |-2-2-2-3-2-2-2-3-2-2-2-3-2-2-2-3--| 
E |-0-0-0---0-0-0---0-0-0---0-0-0----| 

Despues se queda sola una guitarra y hace esto. 

E |-------------------------------------------------| 
B |-------------------------------------------------| 
G | --------------------------------------------9---| 
D | --------------------------------------------9---| 
A |-8p7h8p7--8p7h8p7h8p7--8p7h8p7--8p7h8p7h8p7--7---| 
E |---------------------------------------------0---| 

~~~~~~~~~~~~~~~~~~~~~~~~~~~~~~~~~~~~~~~~~~~~~~~~~~~~~
Que onda mi nombre es Victor, cualquier duda, 
comentario o intercambio de partituras sobre todo de 
rock guatemalteco y de Viernes Verde comunicarse a 
Esta dirección de correo electrónico está siendo protegida contra los robots de spam. Necesita tener JavaScript habilitado para poder verlo.