Viernes Verde - Daddy



*************************************************
* Viernes Verde                                 *
* Daddy                                         *
* www.RockChapin.ORG                            * 
*************************************************
 

INTRO:
E||--------------5-5-6-5-----------6-5----------
B||-6---8b8-6-8----------6-6/8-8-6-----6-6/8-6--
G||---5-----------------------------------------
D||---------------------------------------------
A||---------------------------------------------
E||---------------------------------------------
 
E||---------------------5-5-5-8-6-5-6-5---------
B||-----6-5-6---8b8-6-8-----------------6-6/8-6-
G||-5/7-------5---------------------------------
D||---------------------------------------------
A||---------------------------------------------
E||---------------------------------------------
 
E||-6-5-------------------------
B||-----6-6/8-6-----6-5-6-------
G||-------------5p7-------------
D||-----------------------------
A||-----------------------------
E||-----------------------------
 
 
Fa                   Do
Kid you know I love you but what 
             Rem        Do
Happened today cannot live this room
Fa              Do                Rem
Lock it all inside leave it all behind 
                   Do
Pretend it isn't there…
 
Coro:
Fa
Lady take me
   Do                    Rem
Away can't live with the regret after
        Dom
What I did
Fa             Do
Lady take me away can't live
       Rem        Do
With my self
 
(Otra vez la primera parte del INTRO).
 
(Lo demás es igual)
 
Dad's been gone now for 
Almost 10 years thought I could leave
It all behind then why can't I look at 
Another person in the eye and not feel
So ashamed
 
Coro:
Lady take me
Away can't live with the regret after
What He did
lady take me away can't live
With my self.
 
SOLO:
 
E||----------------------------------------------------------
B||-------6-6/8-8-8/10-10-8-6\5-5/6-6------------------------
G||----------------------------------------------------------
D||-/3--------------------------------7-8-10\5-7-8\3-2-2-3---
A||----3-----------------------------------------------------
E||----------------------------------------------------------
 
E||-5-6-8\5-5-6-8/10-13-13-13\12-12-12-12\10-10-10-10\8-8-8-8-----
B||---------------------------------------------------------------
G||---------------------------------------------------------------
D||---------------------------------------------------------------
A||---------------------------------------------------------------
E||---------------------------------------------------------------
 
E||-5-6-8\5-5-6-8\---------
B||----------------6-5-5---
G||------------------------
D||------------------------
A||------------------------
E||------------------------
 
Lady take me away
can't live with that regret
after what He did
Lady Take me away
can't live with Myself
 
Lady take me away
can't live with that regret
after what He did
Lady Take me away
can't live with Myself
 
Thought I could leave it all behind
though I could locked all inside…
Daddy you were wrong  I thought 
You were my friend 
thought I could 
Count on you
I  thought you'll be there by my side…
Daddy you were wrong.

________________________________________________________________
Alfredo Asensio Figueroa
A.A.F.enlared
www.geocities.com/aafenlared
Esta dirección de correo electrónico está siendo protegida contra los robots de spam. Necesita tener JavaScript habilitado para poder verlo.