Lección 17



En esta lección de mayo aprenderemos arpeggios. Estos los usa mucho Marty Friedman
gran guitarrista que tambien toco en Megadeth.

Este arpeggio se aplica para A = La Mayor

E-------------9----------9--12------9--|-------------9----------9--12-------9--|
B----------10---------10---------10----|----------10---------10----------10----|
G--------9----------9----------9-------|--------9----------9-----------9-------|
D-----11---------11--------------------|-----11---------11---------------------|
A--12----------------------------------|--12-----------------------------------|
E--------------------------------------|---------------------------------------|

E----------------------|
B--10-------------2----|
G-----9-----------2----|
D-------11--------2----|
A----------12--9-------|
E----------------------|


Dudas o comentarios : Esta dirección de correo electrónico está siendo protegida contra los robots de spam. Necesita tener JavaScript habilitado para poder verlo.