Lección 12



En esta lección de Diciembre veremos 2 ejercicios uno es de sweep pickin' es 
una versión modificada del sweep del mes pasado y el otro es un ejercicio que 
John Petrucci de Dream Theater usa para calentar.

Feliz Navidad y Prospero Año Nuevo! espero q estas 12 lecciones del 2006 les 
hayan servido y tengan por seguro q continuaran en el 2007! éxitos y larga 
vida al rock n' roll!

Ej.1

E------7-9p7---------
B----8-------8-------
G--9-----------9-----
D--------------------
A--------------------
E--------------------
   ^ ^ ^ v   v v

Ej.2 (ejercicio de calentamiento)

E-----------13----------13-----------10-----------10--------------------------------------------------
B--------12----------11-----------11-----------12-------------13----------13----------10----------10--
G-----11----------12-----------12-----------11-------------12----------11----------11----------12-----
D--10----------10-----------13-----------13-------------11----------12----------12----------11--------
A----------------------------------------------------10----------10----------13----------13-----------
E-----------------------------------------------------------------------------------------------------

nota: (en el ejercicio 2 siempre alternando la pua)

Notación:

^ pua hacia abajo
v pua hacia arriba
p pull off

Para dudas o comentarios escribir a: 

Esta dirección de correo electrónico está siendo protegida contra los robots de spam. Necesita tener JavaScript habilitado para poder verlo.