Lección 11



Este mes veremos 2 links el 1ero. es un link que usa mucho 
Yngwie J. Malmsteen y que bien ensayado, tocado a la perfección 
y a grandes velocidades puede resultar muy efectivo a la hora 
de solear. En el 2do. aprenderemos un sweep picking básico para 
empezar a explorar las técnicas avanzadas.

Link #1 este link es muy usado por Yngwie y su estructura es 
muy Neoclasica, recomiendo practicarlo bastante.

Este link es para Em

E---------------------------------------------------------------
B--5-2-4-5-7-4-5-7-8-5-7-8-10-7-8-10-12-8-10-12-13-10-12-13-15~-
G---------------------------------------------------------------
D---------------------------------------------------------------
A---------------------------------------------------------------
E---------------------------------------------------------------

Nota: siempre alternando la Pua.

Link #2 en este ejercicio aplicaremos una técnica avanzada 
llamada Sweep Picking

En esta técnica la pua no se toca en forma alternada si no que 
en  forma de barrida en las 3 primeras notas de el link la pua 
va solo hacia abajo barriéndose de la 3ra a la 1ra cuerda y en 
las otras 3 notas la pua va solo hacia arriba barriéndose.

Esta técnica es de practicarla mucho para se oiga un sonido 
limpio si usan guiarra eléctrica recomiendo usar los pickups 
de hasta arriba para sacar un sonido mas dulce y con mas cuerpo.


E------7-10------
B----8------8----
G--9----------7--
D----------------
A----------------
E---------------- repetirlo 3 veces sin estar parando
   ^ ^ ^  v v v

Notación:

~ = vibrato
^ = pua hacia abajo
v = pua hacia arriba

para dudas o comentarios escribir a: 

Esta dirección de correo electrónico está siendo protegida contra los robots de spam. Necesita tener JavaScript habilitado para poder verlo.