Lección 07



A continuación les dejo una escala q la podemos aplicar en G = Sol Mayor y les doy 
5 posiciones diferentes para tener mas alternativas.

Nota: Siempre cuidando q la púa este alternándose

1ra posición
|-----------------------------------------2--3--5--------------------|
|-----------------------------------3--5-----------------------------|
|--------------------------2--4--5-----------------------------------|
|-----------------2--4--5--------------------------------------------|
|--------2--3--5-----------------------------------------------------|
|--3--5--------------------------------------------------------------|
                        r                    
   2  4  1  2  4  2  3  4  1  3  4  2  4  1  2  4
   
 
2da posición 
|--------------------------------------------5--7--8-----------------|
|-----------------------------------5--7--8--------------------------|
|--------------------------4--5--7-----------------------------------|
|-----------------4--5--7--------------------------------------------|
|-----------5--7-----------------------------------------------------|
|--5--7--8-----------------------------------------------------------|
                                          
 
   1  3  4  2  4  1  2  4  1  2  4  1  3  4  1  3  4
 
3ra posición 
|------------------------------------------------7--8--10------------|
|--------------------------------------7--8--10----------------------|
|--------------------------------7--9--------------------------------|
|----------------------7--9--10--------------------------------------|
|------------7--9--10------------------------------------------------|
|--7--8--10----------------------------------------------------------|
                                          
   1  2  4   1  3   4  1  3  4   1  3   1  2  4   1  2  4
 
4ta posición 
|-------------------------------------------------------10--12-------|
|-------------------------------------------10--12--13---------------|
|--------------------------------9--11--12---------------------------|
|---------------------9--10--12--------------------------------------|
|----------9--10--12-------------------------------------------------|
|--10--12------------------------------------------------------------|
                                        
    2   4  1   2   4  1  2    4  1   3   4   1   3   4   1   3
 
5ta posición 
|---------------------------------------------------------12--14--15-|
|---------------------------------------------12--13--15-------------|
|---------------------------------11--12--14-------------------------|
|-------------------------12--14-------------------------------------|
|-------------12--14--15---------------------------------------------|
|-12--14--15---------------------------------------------------------|
                                                                  
   1  3   4    1   3   4   1   3   1   2   4   1   2   4    1   3  4


Acordes del mes:

Gm = Sol menor
E----3----
B----3----
G----3----
D----5----
A----5----
E----3----

Am = La menor
E----0----
B----1----
G----2----
D----2----
A----0----
E----0----

Dudas o comentarios: Esta dirección de correo electrónico está siendo protegida contra los robots de spam. Necesita tener JavaScript habilitado para poder verlo.