Lección 06



En esta lección empezaremos a usar lo q son los arpegios vamos a usar la intro
de una canción muy conocida de la banda inglesa The Police y la canción es uno de 
sus mas grandes hits llamado Every breath you take.

La intro de esta canción es muy fácil pero a la vez nos ayuda con una buena 
digitación y tiene muy buen ritmo y creatividad.


Ej.1


E----------------------
B----------------------
G-----------6----------
D------9-------9---9---
A----7---7-------7-----
E--5------------------- esto se toca 2 veces

E----------------------
B----------------------
G-----------2----------
D------6-------6---6---
A----4---4-------4-----
E--2------------------- 2 veces

E----------------------
B----------------------
G------9----7----------
D----7--------7----7---
A--5-----5------5------
E---------------------- 1 vez

E----------------------
B----------------------
G------11----9---------
D----9---------9----9--
A--7------7------7-----
E---------------------- 1 vez

E----------------------
B----------------------
G-----------6----------
D------9-------9---9---
A----7---7-------7-----
E--5------------------- 2 veces

Esta es la intro completa, espero q les sirva 

Nota: Siempre alternando la pua.

Sugerencia: Si están tocando con guitarra eléctrica pónganle el efecto Chorus


Acordes del mes

Em = Mi menor

E----0----
B----0----
G----0----
D----2----
A----2----
E----0----

Fm = Fa menor

E----0----
B----0----
G----0----
D----3----
A----3----
E----1----

dudas o comentarios 

Esta dirección de correo electrónico está siendo protegida contra los robots de spam. Necesita tener JavaScript habilitado para poder verlo.