Lección 05



Bueno este mes seguimos con los Licks para poderlos aplicar en improvisasiones
estos licks ayudan a tener ideas mas claras a la hora de tocar y no tener nada
preparado uno los puede aplicar en cualquier circulo solo se cambiaria la 
posicion al cambiar del circulo, estos licks q estoy poniendoles son mas q todo 
para rock aunque se pueden usar muy bien en generos como el Blues.

Licks para Am

Lick 1

E--12-14-15-14-12---12----------------------------------------
B-----------------15--15-14-15-14-12-14-15-14-12--------------
G------------------------------------------------15-14-12-----
D-------------------------------------------------------------
A-------------------------------------------------------------
E-------------------------------------------------------------

Lick 2

E--7-8-5-7---5----------------------------------------------------------
B----------8---6-8-5-6---5----------------------------------------------
G----------------------7---5-7-4-5---4----------------------------------
D----------------------------------7---5-7-3-5---3----------------------
A----------------------------------------------7---5-7-3-5---3----------
E----------------------------------------------------------7---5-7-5----

nota: siempre alternando la pua

Acordes

bueno este mes empezamos con los acordes menores

Cm = Do menor 

E----3----
B----4----
G----5----
D----5----
A----3----
E----x----

Dm = Re menor

E----1----
B----3----
G----2----
D----0----
A----x----
E----x----


dudas o comentarios 

Esta dirección de correo electrónico está siendo protegida contra los robots de spam. Necesita tener JavaScript habilitado para poder verlo.