Lección 04



En este mes les daré un  par de ejercicios muy parecidos a los del mes pasado
solo q la diferencia es q en el anterior puse la escala mayor abierta ahora les
dale la misma escala pero en menor para q puedan aplicarla a acordes y circulos
menores.

Ej.1

Escala para Gm = Sol menor

E-----------------------------------------------5--7--8---
B--------------------------------------5--7--8------------
G-----------------------------4--5--7---------------------
D--------------------4--5--7------------------------------
A-----------3--5--6---------------------------------------
E--3--5--6------------------------------------------------

   1  2  4  1  2  4  1  2  4  1  2  4  1  3  4  1  3  4

nota: siempre cuidando de q el pick sea alternado y hacerlo de ida y regreso


Bueno y para q practiquen durante semana santa les voy a dar 2 licks para rock

Lick 1

E----5-7-8-7-5---5-7-8-7-5---5-7-8-7-5---5-7-8-7-5----------
B--------------8-----------8-----------8-----------8--------
G-----------------------------------------------------------
D-----------------------------------------------------------
A-----------------------------------------------------------
E-----------------------------------------------------------

nota: siempre alternando el pick y si se puede traten de hacerlo con metronomo
empiecen con un tempo de 60 y despues traten de doblar la velocidad a 120

Lick 2

E---------------------------------------
B---------------------------------------
G--------5-7-----5-7-----5-7-----5-8----
D----5-7-----5-7-----5-7-----5-7--------
A---------------------------------------
E---------------------------------------

espero q los practiquen mucho

bueno y aqui les dejo el ultimo acorde mayor ya apartir del mes entrante
empezaremos con los acordes menores.

B = Si mayor

E----2----
B----4----
G----4----
D----4----
A----2----
E----x----

dudas o comentarios 

Esta dirección de correo electrónico está siendo protegida contra los robots de spam. Necesita tener JavaScript habilitado para poder verlo.