Lección 01



Vamos a empezar con 3 ejercicios básicos para mejorar la digitación y para 
pulir la técnica.

Ej 1. 
En este ejercicio vamos a tocar la escala mayor fundamental que es la 
escala de Do mayor.
Poner especial atención en la técnica de la pua siempre tiene que ir 
alternada (abajo y arriba)

Entonces para los que están empezando con la guitarra y la música
la escala de Do mayor se compone por las notas Do Re Mi Fa Sol La si Do

En este pentagrama se les presenta la figura con la que pueden tocar la 
escala de Do Mayor

E---------------------------  <-- 1ra cuerda
B---------------------------  <-- 2da cuerda
G-----------------2--4--5---  <-- 3ra cuerda
D--------2--3--5------------  <-- 4ta cuerda
A--3--5---------------------  <-- 5ta cuerda
E---------------------------  <-- 6ta cuerda
   ^  v  ^  v  ^  v  ^  v
   2  3  1  2  4  1  3  4

Nota: 

^ = pua hacia abajo
v = pua hacia arriba

Los números 1 2 3 y 4 son para ver que dedo de la mano izquierda se usa para 
tocar cada nota

Dedo 1 = Índice
Dedo 2 = Medio
Dedo 3 = Anular
Dedo 4 = Meñique

Ej.2

Ejercicio Cromático

Este ejercicio ayudara a tener mas agilidad con los dedos y a si realmente 
se pone en práctica puede ayudar a tocar mas rápido es sencillo pero 
efectivo.

E--------------------------------------------------------------1--2--3--4---
B--------------------------------------------------1--2--3--4---------------
G--------------------------------------1--2--3--4---------------------------
D--------------------------1--2--3--4---------------------------------------
A--------------1--2--3--4---------------------------------------------------
E--1--2--3--4---------------------------------------------------------------
   ^  v  ^  v  ^  v  ^  v  ^  v  ^  v  ^  v  ^  v  ^  v  ^  v  ^  v  ^  v
   1  2  3  4  1  2  3  4  1  2  3  4  1  2  3  4  1  2  3  4  1  2  3  4  
   Dedos que se usan para cada nota
    

Nota:
Ambos ejercicios anteriores se tiene que practicar de ida y vuelta
siempre cuidando que la pua este siendo alternada y que los dedos este 
pulsando las cuerdas adecuadamente para obtener un sonido limpio.

Como por ahora este es un curso básico de guitarra siempre agregare 2 
acordes para que los vayan apuntando practiquen. 

También usaremos el cifrado como forma de leer los acordes

Acorde de C = Do Mayor

E----0----
B----1----
G----0----
D----2----
A----3----
E----0----

Acorde de D = Re Mayor

E----2----
B----3----
G----2----
D----0----
A----X----
E----X----

Nota: 

Cifrado

A = La 
B = Si
C = Do
D = Re
E = Mi
F = Fa
G = Sol

Nota final: La guitarra tiene que estar afinada en afinación standard 
(E B G D A E)

Para dudas mandar un correo a Esta dirección de correo electrónico está siendo protegida contra los robots de spam. Necesita tener JavaScript habilitado para poder verlo.