Bajo - Lección 12



En esta lección aprenderemos el riff básico para un canción de rock puro
atención en los cambio q debes realizar.

A    B    C    D    E    F    G
LA   SI   DO   RE   MI   FA   SOL

1,4,5 escala básica para el riff de rock

Empezar en A
G|---------------
D|---------------  X4
A|---------77-97-
E|-55-7/99-------

luego a D
G|---------------
D|---------77-97-  X2
A|-55-7/99-------
E|---------------

regresar a A x2

luego E
G|-------------------
D|-----------99-1111-  X1
A|-77-9/1111---------
E|-------------------

regresar a D x1

luego en E x1

y termina en E
G|--------------
D|--------------
A|-77-77-77/----
E|--------------

______________________________________________________________

Este es un ejercicio de una escala de jazz


g--------------------------------------------------
d---------4---------------------------6--7--6------
a------5-----5-----4--7--4------4--7-----------7--4
E---7-----------5------------5---------------------


g---------4---------------------------6--7--6------
d------5-----5-----4--7--4------4--7-----------7--4
a---7-----------5------------5---------------------
E--------------------------------------------------

Tócala repetidas veces es muy melodiosa y de gran digitación.



Dudas o consultas Esta dirección de correo electrónico está siendo protegida contra los robots de spam. Necesita tener JavaScript habilitado para poder verlo.