Bajo - Lección 06



Quintas, Acordes y Baladas

Quintas conducidas: 
En las bossas que hemos tocado hasta ahora, siempre hemos utilizado 
la quinta "aguda" del acorde. Es decir, tocábamos la fundamental, y luego 
la quinta más aguda. 
Si utilizamos también la quinta grave, podemos conseguir una línea de bajo que 
se mantenga dentro de un registro más corto, con menos saltos. En esta imagen ves 
la quinta de DO tal como la tocábamos hasta ahora, y la quinta grave. 
Naturalmente, se trata de la misma nota, pero una octava más grave. 


               Quinta 
-----------------3-------------  Sol
-----------------3F------------  Re
---------5Q--------------------  La
-------------------------------  Mi





En el ejemplo sin conducción, se produce un salto muy grande justo en el cambio 
de acorde. En el primer ejemplo con conducción esto se evita usando la quinta 
grave de DO. En el segundo se usa la quinta grave de LA, y también se evita el 
salto. 
Los dos casos serían correctos, aunque para acompañar, se suele usar la tesitura 
más grave, por lo que el primer ejemplo sería más apropiado. Por último, las 
quintas sin conducir no están necesariamente "mal", es sólo que es bueno saber 
conducirlas para cuando se desea una línea melódicamente más suave. 


La balada:
En este estilo el bajo toca un patrón rítmico compuesto por dos blancas. La 
primera es la fundamental, la segunda puede ser cualquier otra nota del acorde 
(3ª ó 5ª de momento). Contar con la 3ª permite tener más notas para escoger, y es 
más fácil hacer una línea con una mejor conducción: 

             ------------------3Q-----------  Sol
             ------------------3F-----------  Re
             ----------3Q------3C-----------  La
             -------------------------------  Mi

TAB ROCK CON ESTACATO


Allí les va un tab de una canción muy famosa de 
BLACK SABBATH



|-------------------
|----------7-9---7-9     x1 Time!
|-7-7-7-7-9---7-9---
|-------------------

Main Line throught out song and solo
|----------------------------------------
|--------------------------------5-----5-  
|-7-7-7-7-7-7-7-7----5-7-5-5-5-5---5-7---
|-----------------5-7--------------------

Chorus
|---------------------------
|---------------------------   x2 Times!
|-7-7\3-5-7-7-7-7-7-7-7-7-7-
|---------------------------

*Chorus-Only played once in the middle of the song
|---------------------------------
|---------------------------------
|-7-7\5-5/7-7\5-------------------Then Resume to the main line
|---------------------------------

Dudas y comentarios:

Esta dirección de correo electrónico está siendo protegida contra los robots de spam. Necesita tener JavaScript habilitado para poder verlo.